Fuck You, Sumo (bajo)

Autor: Anónimo | 17815 visualizaciones



intro guitarra sola
el bajo entra en la 3 parte
G--------------------------
D--------------------------
A--------------------------
E-0-03-5-0-0-03-5-0-0-035-0
yeah....
G--------------------------
D--------------------------
A--------------------------
E-0-03-5-0-0-03-5-0-0-035-0
cof cof...

1 verso
G--------------------------
D-------------------------- (todas las veces ke sea
A--------------------------    necesario)
E-0-03-5-0-0-03-5-0-0-035-0

pre-verso:
G------------------------------
D------------------------------
A------------------------------
E-0-03-5-0-0-03-5-0-33-55-77-99

verso:
G------------------------
D------------------------
A------------------------
E-1010101010-7-10-9999999
iaiaiaiaieieieiei FUCK YOU!!!!

cierre:
G-----9-----------
D-------8---------
A---------77777/19
E-000-------------
bueno ese es el tema... no viene con grandes 
complicaciones 
espero ke les sea util y ante kualkier duda correccion
o lo se sea eskribanme a tincho@bassplayer.cc
saludossssssss (aguante dieguitoooooo!!!!!)





Calificar esta versión:
Aviso: Este fichero es trabajo propio de su transcriptor y representa su interpretación personal de la canción. El material contenido en esta página es para exclusivo uso privado, por lo que se prohibe su reproducción o retransmisión, así como su uso para fines comerciales.
Más versiones de Fuck You, Sumo
Fuck You
acordes
Fuck You
bajo
Descubre más canciones de Sumo