El Ojo Blindado, Sumo (tablatura)

Autor: Anónimo | 40259 visualizaciones



---------------------------------------------------------------
-------------------------------------------15h17h15h17h15h17h15h17
-14-14-13-11-13-14/16-14-13-11-13-14---------------------------
-------------------------------------12/9----------------------
---------------------------------------------------------------
---------------------------------------------------------------

--------------------------------------------15h17h15h17h15h17h1517
15h18h15h17h15h17h15h17h15h17h15h18h17h15----------------------
---------------------------------------------------------------
---------------------------------------------------------------
---------------------------------------------------------------
---------------------------------------------------------------

-15h18h15h17h17- 17^-19^---------------------------------------
---------------------------------------------------------------
----------------------------------------------------11-12-14-12
-----------------------------11-12-14-12-11-----12-------------
----------------------------12---------------12----------------
---------------------------------------------------------------

---------------------------------------------------------------
---------------------------------------------------------------
--------------------------11-12-14-12-11-^14-------------------
----11-12-14-12-11-----12--------------------------------------
-12-----------------12-----------------------------------------
-------------------------------------------------------------




bueno.. esta es una version que saque yo del solo
del ojo blindado..  quizas en la parte rapida bardeo
fijense si la sacan mejor...

a mi me parece que suena mejor que el otro solo... bueno... fijense..

saludos...

aguante sumo y divididos



klif..





Calificar esta versión:
Aviso: Este fichero es trabajo propio de su transcriptor y representa su interpretación personal de la canción. El material contenido en esta página es para exclusivo uso privado, por lo que se prohibe su reproducción o retransmisión, así como su uso para fines comerciales.
Más versiones de El Ojo Blindado, Sumo
El Ojo Blindado
acordes
El Ojo Blindado
tablatura
El Ojo Blindado (ver 2)
tablatura
El Ojo Blindado
bajo
Descubre más canciones de Sumo