Breaking Away, Sumo (tablatura)

Autor: Anónimo | 22509 visualizaciones



Solo:
e----------------------------------------------------------------|
B----------------------4-4-3---3---6---------9------9/14-11-9----|
G-5-5-5-3----------5-5-------5---3------7-10---(10)-----------10-|
D---------6-5-3--------------------------------------------------|
A----------------------------------------------------------------|
E----------------------------------------------------------------|

e------------------8/11--8/11--8-6-4----4-4-8-6-8-6-----------|
B---------------------------------------------------9-8-9-8-6-|
G-5-8-8-5-8-5-------------------------------------------------|
D-------------8-----------------------------------------------|
A-------------------------------------------------------------|
E-------------------------------------------------------------|

e--------------------------------------------------------------|
B--------------------------------------------------------------|
G-------------------------------------------4-4-4-5-7-7-5-2-4--|
D-6-6-6-5-3-5-6-----------------------------6-6-6-7-9-9-7-4-6--|
A---------------3----3-3-3-5-5/7-7-5-3-2-----------------------|
E--------------------------------------------------------------|


Punteo de fondo en el final:  

e-8------8------------------------------------------|
B-----11------11--9--8--9-8-6----6-8-9-8-6----------|
G-------------------------------------------8-6-5---| 2 veces
D---------------------------------------------------|
A---------------------------------------------------|
E---------------------------------------------------|


Compuse esta tablatura para revivir esta gran banda que fue y será 
una de las mejores que tuvo el Rock Nacional Argentino.
 





Calificar esta versión:
Aviso: Este fichero es trabajo propio de su transcriptor y representa su interpretación personal de la canción. El material contenido en esta página es para exclusivo uso privado, por lo que se prohibe su reproducción o retransmisión, así como su uso para fines comerciales.
Más versiones de Breaking Away, Sumo
Breaking Away
acordes
Breaking Away
tablatura
Breaking Away
bajo
Descubre más canciones de Sumo