Pieces, Sum 41 (bajo)

Autor: ozmos_roses | 18530 visualizaciones

para mas info:edmundo_loko@hotmail.com
Entra baixo batera e guitarra-solo..

¨this place is so empty..¨

        D                      Bb                   F                      C
G|-------------------------------------------------------------------------------------
D|-------------------------------------------------------------------------------------
A|-5-5-5--5-5-5-5-5-5--1-1-1--1-1-1-1-1-1-------------------------3-3-3--3-3-3-3-3-3---
E|---------------------------------------------1-1-1--1-1-1-1-1-1----------------------

Fica assim ateh

¨but it´s the only thing that I have..¨

No refrão eh..

¨If you belive it´s in my soul..¨

            Bb                                   F                   C
G|-----------------------------------------------------------------------------------|
D|--------------------------------------------------------------
A|-1-1-1--1-1-1-1-1-1--1-1-1--1-1-1-1-1-1----------------------3-3-3--3-3-3-3-3-3----|
E|-----------------------------------------1-1-1--1-1-1-1-1-1---
Calificar esta versión:
Aviso: Este fichero es trabajo propio de su transcriptor y representa su interpretación personal de la canción. El material contenido en esta página es para exclusivo uso privado, por lo que se prohibe su reproducción o retransmisión, así como su uso para fines comerciales.
Más versiones de Pieces, Sum 41
Pieces
acordes
Pieces (ver 2)
acordes
Pieces (ver 3)
acordes
Pieces (ver 4)
acordes
Pieces (ver 5)
acordes
Pieces (ver 6)
acordes
Pieces
tablatura
Pieces
bajo
Descubre más canciones de Sum 41