Hell Song, Sum 41 (tablatura)

Autor: geniobeba | 18002 visualizaciones

bueno aqui les dejo la tablatura de esta cancion que esta buenaza.



Intro (Guitarra 1)
e|---------------------------------------------|
B|---------------------------------------------|
G|---------------------------------------------|
D|--------1--------1---------1-----------------| X3
A|----2-4--2---2-4---2-2-2-4--2---7-7-6-6-4-4--|
E|--4--------0------------------2--------------|

Intro (Guitarra 2)
e|-------------------------------|
B|-------------------------------|
G|--------------44444------------|
D|--66666-22222-44444-44444------| X2
A|--66666-22222-22222-44444------|
E|--44444-00000-------22222------|

Riff 1
e|---------------------------------------|
B|---------------------------------------|
G|------------------4444444--------------|
D|--6666666-2222222-4444444-4444444------| X2
A|--6666666-2222222-2222222-4444444------|
E|--4444444-0000000---------2222222------|
    ####### ####### ####### #######

Riff 2
e|--------------------------------------------------|
B|--------------------------------------------------|
G|------------------------44-4-44-4-----------------|
D|--66-6-66-6--22-2-22-2--44-4-44-4--44-4-44-4------| X2
A|--66-6-66-6--22-2-22-2--22-2-22-2--44-4-44-4------|
E|--44-4-44-4--00-0-00-0-------------22-2-22-2------|
    ##   ##    ##   ##    ##   ##    ##   ##


| Intro  X2 |
| Riff 2 X4 |

Refrao
e|---------------------------------------|
B|---------------------------------------|
G|----------9999999-4444444--------------|
D|--6666666-9999999-4444444-4444444------| X4
A|--6666666-7777777-2222222-4444444------|
E|--4444444-----------------2222222------|    

No fim do 4º refrao, quando o carinha diz "anymore...", toque isso:
e|---------------|
B|---------------|
G|---------------|
D|--66-66-66-6~--|
A|--66-66-66-6~--|
E|--44-44-44-4~--|

Solo (A segunda guitarra faz a mesma base do refrao)

            |.  SEGURE  .|          |.  SEGURE  .|
e|-------------------------------------------------------------------------|
B|--9--------9---9---9---x-9--------9---9---9---x--------------------------|
G|--11b-(13)-11b-11b-11d-x-11b-(13)-11b-11b-11b-x--9/11-11-11-11-11-9-8----|
D|----------------------------------------------------------------------11-|
A|-------------------------------------------------------------------------|
E|-------------------------------------------------------------------------|
				
e|-------------------------------------------------------------------------|
B|-------------------------------------------------------------------------|
G|-------------------------------*-*--*--*--*--*--*-*--*-------------------|
D|--/11h13p11--/9h11p9--/7h9p7---9-11-13-14-13-11-9-11-13--8h9-8h9-8h9-8h9-|
A|-------------------------------------------------------------------------|
E|-------------------------------------------------------------------------|

e|-------------------------------------------------------------------------|
B|-------------------------------------------------------------------------|
G|-------------------------------------------------------------------------|
D|--9h11-9h11-9h11-9h11--11h13-11h13-11h13-11h13--13h14-13h14-13h14-13h14--|
A|-------------------------------------------------------------------------|
E|-------------------------------------------------------------------------|

e|-------------------------------------------------------------------------|
B|--9---x-11--11--x-12--12--x-14--14---x--14b-14b-14b-14p12-----14b-14b-12-|
G|--11b-x-13b-13b-x-14b-14b-x-16b-16b--x--------------------13-------------|
D|-------------------------------------------------------------------------|
A|-------------------------------------------------------------------------|
E|-------------------------------------------------------------------------|

e|------------14------------------14------------------------------------------|
B|--14-12-14b---14d-12--14-12-14b---14d-12--12-11-11h12p11--------------------|
G|---------------------------------------------------------11-13-11----11-8---|
D|-----------------------------------------------------------------13-----11--|
A|----------------------------------------------------------------------------|
E|----------------------------------------------------------------------------|

e|-----------------------------------------------------|
B|-----------------------------------------------------|
G|-----------------------------------------------------|
D|--9-11-11-9-11-11-9-11-11-9------------------6-4-6-x-|
A|----------------------------11~~~~~----------6-4-6-x-|
E|---------------------------------------------4-2-4-x-|

Riff 3 
e|--------------------------------------------------------------------|
B|--------------------------------------------------------------------|
G|------------------4444444--------------------------4444444----------|
D|--6666666-2222222-4444444-4444444--6666666-2222222-4444444-4~~~-----|
A|--6666666-2222222-2222222-4444444--6666666-2222222-2222222-4~~~-----|
E|--4444444-0000000---------2222222--4444444-0000000---------2~~~-----|
    ####### ####### ####### #######  ####### ####### #######

Chorus 2
e|-------------------------------------------|
B|-------------------------------------------|
G|----------9999999-4444444------------------|
D|--6666666-9999999-4444444-4-2-1------------|
A|--6666666-7777777-2222222------4-2-1-------|
E|--4444444---------------------------2------|

---------------------------------
|Intro Guitarra 1 e 2 juntas  . |
---------------------------------

Acaba em:
e|-------|
B|-------|
G|-------|
D|--6~~--|
A|--6~~--|
E|--4~~--|

# abafar
b bend
d soltar bend
~ deixe a corda soar
Tenho quase certeza d que o solo tah certo, mas parece que em "*" a 
guitarra faz um dueto de 3ª.
Calificar esta versión:
Aviso: Este fichero es trabajo propio de su transcriptor y representa su interpretación personal de la canción. El material contenido en esta página es para exclusivo uso privado, por lo que se prohibe su reproducción o retransmisión, así como su uso para fines comerciales.
Más versiones de Hell Song, Sum 41
Hell Song
tablatura
Hell Song (ver 2)
tablatura
Descubre más canciones de Sum 41