Fat Lip, Sum 41 (bajo)

Autor: ozmos_roses | 32849 visualizaciones

paramas info: edmundo_loko@hotmail.com
Intro
|----------------|
|----------------|
|-----222--------| (x6)
|----------------|

|-------------------------|
|-------------------------|
|----------------------0--| (x4)
|-0h1h2--2-----0h1h2------|

Verso (Stormin through the party..)
G------------------------------|
D------------------------------|
A---------2-2------0-0----0----| (x2)
D--2-2---------------------6-4-|

Segunda Parte do Verso (I know im not the one..)
|---------------------------------------| 
|---------------------------------------| 
|-------------------44444444--00000000--| (x2) 
|-2222222222222222----------------------|

Refrão (I dont wanna waste..)
|---------------------------|
|---------------------------|
|--7-----4------------------| (x2)
|----9---------6--77--6-77--| 

Depois..("and back down"..)
|-------------------------| 
|-------------------------|
|----------------------0--| (x4)
|-0h1h2--------0h1h2------|

Verso (..know us at all..) 
|------------------------------|
|------------------------------| 
|---------2-2------0-0----0----| (x2)
|--2-2 --------------------6-4-| 

Segunda Parte do Verso (Cuz we like havin fun..) 
|---------------------------------------| 
|---------------------------------------| 
|-------------------44444444--00000000--| (x2)
|-2222222222222222----------------------|

Refrão (I dont wanna waste..)
|---------------------------|
|---------------------------| 
|--7-----4------------------| (x2)
|----9---------6--77-6--77--|

Bridge Parte 1 ("And back down") 
|-----------------------------------|
|-----------------------------------| 
|------------------0----------------| (x1)
|--22-2-22-22-22-2---22-2-22-22-22--|

Parte Lenta: 
|--------------------------------| 
|--------------------------------| 
|-4-6--7,--6,--4,--2-4-2---------| (x2)
|--------------------------------|

Bridge Parte 3 (Well Im a..) 
|-------------------------|
|-------------------------| 
|----------------------0--| (x2)
|-0h1h2--------0h1h2------| 

PAUSA (youll be standin on the corner..)

Continue em (..you dont make sense..)
|-------------------------| 
|-------------------------| 
|----------------------0--| (x2)
|-0h1h2---2----0h1h2------|

(..hit list -wanted- in the telephone book..) 
|-------------------------------------------| 
|-------------------------------------------| 
|-------------------0--------------------0--| (x1)
|-0-2--(pause)-0h1h2----0h1h2--2--0h1h2-----|

PAUSA (The doctor said my mom..)

Continua em (..bortion bortion..") 
|-------------------------| 
|-------------------------|
|-------------------------| (x1)
|--00000000000000000000---|

Refrão (I dont wanna waste..) 
|---------------------------|
|---------------------------| 
|--7-----4------------------| (x2)
|----9-7-------6--77-6--77--| 

(back down, "waste my time again"..) 
|-------------------------| 
|-------------------------| 
|--7-----4----------------| (x2)
|-----9-------------------|

(..down down down..) 
|-------------------------|
|-------------------------| 
|----------------------0--| (x4)
|-0h1h2---2----0h1h2------|

Fim 
|-----------------|
|-----------------|
|-----------------| (x1)
|--22-pausa--22---|
Calificar esta versión:
Aviso: Este fichero es trabajo propio de su transcriptor y representa su interpretación personal de la canción. El material contenido en esta página es para exclusivo uso privado, por lo que se prohibe su reproducción o retransmisión, así como su uso para fines comerciales.
Más versiones de Fat Lip, Sum 41
Fat Lip
acordes
Fat Lip
tablatura
Fat Lip
bajo
Descubre más canciones de Sum 41