Aprendizaje, Sui Generis (tablatura)

Autor: Anónimo | 19316 visualizaciones



Intro 

E------------------------- 
B-----1-3-5-3-5-3-1-----1- 
G-0-2---------------2-0---
D-------------------------
A-------------------------
E-------------------------

E---------------------------------------5-5---------0-0-------------
B-1-3-1-5------5-3-1---1--------1-1-3-5-----------------3-1-3-------
G--------------------2----------------------------------------------
D-------------------------------------------------------------------
A-------------------------------------------------------------------
E-------------------------------------------------------------------
Aprendí a ser formal y cortés, cortándome el pelo, una vez por mes

E---------0----0-0-7-8-8------------3-5-3---------------------------
B-1-1-3-1---------------------1-3-5-------5-1----------3-0-1--------
G-------------------------------------------------------------------
D-------------------------------------------------------------------
A-------------------------------------------------------------------
E-------------------------------------------------------------------
Y si me aplazó la formalidad, es que nunca me gustó la sociedad.

E------------------------------------------5------0-----------------
B-1-3-1-5-------5-3-1---1------------1-3-5----------5-3-1-3---------
G---------------------2---------------------------------------------
D-------------------------------------------------------------------
A-------------------------------------------------------------------
E-------------------------------------------------------------------
Viento del sur, oh, lluvia de abril, quiero saber donde debo ir

E-------0--------0-0-7-8-8--------------3-5-3-----------------------
B-1-3-1---------------------------1-3-5-------5-1-----------3-0-1---
G-------------------------------------------------------------------
D-------------------------------------------------------------------
A-------------------------------------------------------------------
E-------------------------------------------------------------------
No quiero estar sin poder crecer, aprendiendo las lecciones para ser

E------------------------------------------------------------------
B-----0-1-3-3-3-1-------0-1-0-0-------------------------------------
G-2-2---------------------------2-----------------------------------
D-------------------------------------------------------------------
A-------------------------------------------------------------------
E-------------------------------------------------------------------
Y tuve muchos maestros de que aprender, 

E-------------------------------------------------------------------
B-----0-2-4-4-4-1--------1-2-1-1------------------------------------
G-2-2----------------------------2----------------------------------
D-------------------------------------------------------------------
A-------------------------------------------------------------------
E-------------------------------------------------------------------
Solo conocían su ciencia y el deber

E------------------------------------------------------------------
B-1-3-4-5-4-4-2-0------4-5-4-4-2-----------------------------------
G------------------------------------------------------------------
D------------------------------------------------------------------
A------------------------------------------------------------------
E------------------------------------------------------------------
Nadie se animo a decir una verdad,

E------------------------------------------------------------------
B-1-3-4-5-4-4------------------------------------------------------
G------------------------------------------------------------------
D------------------------------------------------------------------
A------------------------------------------------------------------
E------------------------------------------------------------------
Siempre el miedo fue tonto

Esta es la primera canción que aprendí a tocar. Very thanks 
Josemago007@hotmail.com !! por las correcciones y tu paciencia de enseñar.....!!!!!

Fuente original: LaCuerda
Colaborador original: Carolina - saco todo !!!! [deleo_carolina@hotmail.com]





Calificar esta versión:
Aviso: Este fichero es trabajo propio de su transcriptor y representa su interpretación personal de la canción. El material contenido en esta página es para exclusivo uso privado, por lo que se prohibe su reproducción o retransmisión, así como su uso para fines comerciales.
Más versiones de Aprendizaje, Sui Generis
Aprendizaje
acordes
Aprendizaje (ver 2)
acordes
Aprendizaje (ver 3)
acordes
Aprendizaje
tablatura
Aprendizaje
armonica
Aprendizaje (ver 2)
armonica
Descubre más canciones de Sui Generis