Goliat, Su Presencia (tablatura)

Autor: Anónimo | 22843 visualizaciones

Intro:

    e|-12-12-12-12-11-11-11-11-12-12-12-12-11-11-11-11--11-11-|
    B|-12-12-12-12-12-12-12-12-12-12-12-12-12-12-12-12--12-12-|

      C#m
    B|-9-9-9-10-10-10-9-9-9-10-10-10-9-9-10-10-|
    G|-9-9-9-9--9--9--9-9-9-9--9--9--9-9-9--9--|

       E
    B|-9-9-9-10-10-10-9-9-9-10-10-10-9-9-10-10-|
    G|-9-9-9-9--9--9--9-9-9-9--9--9--9-9-9--9--|

       B
    G|-8-8-8-9-9-9-8-8-8-9-9-9-8-8-9-9-|
    D|-9-9-9-9-9-9-9-9-9-9-9-9-9-9-9-9-|

      F#m
    e|-12-12-12-11-11-11-12-12-12-11-11-11-12-12-11-12v-|
    B|-12-12-12-12-12-12-12-12-12-12-12-12-12-12-12-12v-|

              E                             B
Verso:  No importa que tan grande es mi problema
        C#m                      A
        Dios es más grande, más grande
              E                      B
        No importa que oscura sea la noche
           C#m                        A
        Tu luz siempre, siempre brillará

 En el verso la guitarra hace lo siguiente:

    e|-11-11-11----------------------------------------|
    B|----------12-12-12-14-14-14----------------------|
    G|----------------------------13-13-13-13-13-13-13-|

    G|-14-14-14-13-13-13-13-------------11-11-11-11-|
    D|----------------------14-14-14-14-------------|

    G|-13b14r13b14r13b14r13b14r13b14r13b14r13b14r13b14r13-|

                E                   B
Coro:  Por más grande que sea el Goliat

    e|---------12-12-12-12-12-12-12-11-------|
    B|---------12-12-12-12-12-12-12----12----|
    G|------------------------------------11-|

          F#m                 A
       Mi Dios siempre triunfará

    e|----9--9--9--9--9--9--9--|
    B|----10-10-10-10-10-10-10-|

            E                  B
       Y en medio de la oscuridad

    e|-----12-12-12-12-12-12-12-11-------|
    B|-----12-12-12-12-12-12-12----12----|
    G|--------------------------------11-|

          F#m                       A
       Tu luz, Tu luz siempre brillará

    e|----9--9--9--9--9--9--9--9--|
    B|----10-10-10-10-10-10-10-10-|

              E                        B
Verso:  En la mano del que tiene el poder
        C#m                  A
        Todo problema yo pondré
           E               B
        En Él descansaré, puedo saber
              C#m           A
        Que en Él puedo vencer

 Y en este verso la guitarra hace lo siguiente:

    e|-11-11-11----------------------------------------|
    B|----------12-12-12-14-14-14----------------------|
    G|----------------------------13-13-13-13-13-13-13-|

    G|-14-14-14-13-13-13-13-13-------11-11-11-11-11-11-|
    D|-------------------------14-14-------------------|

    G|-13b14r13b14r13b14r13b14-|

Coro.

                  C#m
Puente:  Brillaré

    e|---------------------17-17-17----------17-17-17-16-16-|
    B|------------------------------------------------------|
    G|------------13-13-13----------13-13-13----------------|

                  E
         Brillaré

    e|---------------------17-17-17----------17-17-17-16-16-|
    B|------------------------------------------------------|
    G|------------13-13-13----------13-13-13----------------|

                 B
         Con tu luz

    e|-----------------12-12-12-------12-12-12-11-11-|
    B|-----------------------------------------------|
    G|-----------8-8-8----------8-8-8----------------|

                 F#m
         Mi victoria

    e|-----------12-12-12-11-11-11-12-12-12-11-11-11-12-11-|
    B|-----------12-12-12-12-12-12-12-12-12-12-12-12-12-12-|

                 C#m
         Eres Tú

    e|--------------------17-17-17----------17-17-17-16-16-|
    B|-----------------------------------------------------|
    G|-----------13-13-13----------13-13-13----------------|

                  E
         Brillaré

    e|---------------------17-17-17----------17-17-17-16-16-|
    B|------------------------------------------------------|
    G|------------13-13-13----------13-13-13----------------|

                  B
         Con tu luz

    e|-----------------12-12-12-------12-12-12-11-11-|
    B|-----------------------------------------------|
    G|-----------8-8-8----------8-8-8----------------|

                 F#m
         Mi victoria

    e|-----------12-12-12-11-11-11-12-12-12-11-11-11-12-11-|
    B|-----------12-12-12-12-12-12-12-12-12-12-12-12-12-12-|

                E
         Eres Tú

    e|----------12v-|
    B|----------12v-|

E-B-F#m-A

               E                   B
Final:  No hay nada imposible para ti
              F#m                  A
        No hay nada imposible para ti

 Luego la guitarra hace la misma figura del coro:

               E                   B
        No hay nada imposible para ti

    e|---------12-12-12-12-12-12-12-11-------|
    B|---------12-12-12-12-12-12-12----12----|
    G|------------------------------------11-|

              F#m                  A
        No hay nada imposible para ti

    e|----9--9--9--9--9--9--9--|
    B|----10-10-10-10-10-10-10-|
Calificar esta versión:
Aviso: Este fichero es trabajo propio de su transcriptor y representa su interpretación personal de la canción. El material contenido en esta página es para exclusivo uso privado, por lo que se prohibe su reproducción o retransmisión, así como su uso para fines comerciales.
Más versiones de Goliat, Su Presencia
Goliat
acordes
Goliat
tablatura
Descubre más canciones de Su Presencia