Espíritu Santo, Su Presencia (tablatura)

Autor: Anónimo | 22907 visualizaciones

Tonalidad:B

INTRO

  B
E|-----------7--7--9--7-----------------|
B|-------7---7--7--9--7--7-7h9p7---------|
G|-------8------------------------4------|
D|--8s9--9-------------------------------|
A|---------------------------------------|
E|---------------------------------------|

  F#
E|----------6--6--9--6-------------------|
B|-------7--7--7--9--7-------------------|
G|-------6--------------6-6h8p6----------|
D|--9s8--8----------------------8--------|
A|---------------------------------------|
E|---------------------------------------|

  G#m
E|---------------------------------------|
B|-------5----------7--------------------|
G|-------4--6-6-6s8---8-6-4--------------|
D|--8s6--6-------------------------------|
A|---------------------------------------|
E|---------------------------------------|

  E              F#
E|---------------------------------------|
B|---------5-----------7-----------------|
G|-------4---4-------6---6---------------|
D|--4h6--------6---8-------8-------------|
A|---------------------------------------|
E|---------------------------------------|
(Se Repite)

Estrofas:

E|----9-----9----------------------------|
B|--7------7-----5-----7-----------------|
G|-8 -----6-----4-----6------------------|
D|-------------6-----8-------------------|
A|---------------------------------------|
E|---------------------------------------|


  B          F#
Te anhelo, te deseo

   G#m
ven camina junto a mí.

      E      F#
Tú me puedes entender

        B
Consolador.

    F#       G#m
Sumérgeme, inúndame de ti.

   E                  F#
Quiero llevar tu color en mí.

       B
Espíritu

      F#
inúndame de ti.

         G#m
Quiero estar en ti.

       E           F#
Que me guíes en mi caminar.

/Coro/

B
Gracias por estar aquí,

             F#
por estar en mí, sosteniéndome, ayudándome,

G#m
Consolador,

E       F#
Ayudador,

B
una vez más.

/Coro/


S=Slaing
H=Hammer
P=Pull Off

Alguna Duda Davidarl._@Hotmail.com = Facebook

Espero que estas tabs les sea de mucha ayuda :)
Calificar esta versión:
Aviso: Este fichero es trabajo propio de su transcriptor y representa su interpretación personal de la canción. El material contenido en esta página es para exclusivo uso privado, por lo que se prohibe su reproducción o retransmisión, así como su uso para fines comerciales.
Más versiones de Espíritu Santo, Su Presencia
Espíritu Santo
acordes
Espíritu Santo
tablatura
Descubre más canciones de Su Presencia