Como Un Trueno, Su Presencia (tablatura)

Autor: Anónimo | 28638 visualizaciones

ESTO ES LO QUE HASTA EL MOMENTO HE SACADO
GUITARRA ACUSTICA CON ESTOS ACORDES
INTRO:

C#m7     A9      E5     BSUS4
E-0      E-0     E-0    E-0
B-0      B-0     B-0    B-0
G-6      G-6     G-4    G-4
D-6      D-7     D-2    D-4
A-4      A-7     A-X    A-2
E-X      E-X     E-X    E-X

C#m7               A9     E       BSUS4
D------------------2------2-------4-
A-----2-----2S4----0------2-------2-
E-2H4---4---------------------------

             B-----5---------------
  ELECTRIC   G-------4-------------
  GUITAR II  D---------7--6--------
             A---------------------

C#m7  A9         E             BSUS4
E----------------------5----5--4----12P11------------
B-5P4---------4S5----5---5--5--5-----------12s10s12--
G-----6-4-4S6-----2----------------------------------


ESTROFA I
C#m7                    A9
 Como un trueno escucho desde el
         E5  BSUS4
cielo su voz
C#m7                 A9
fuego eterno en tu mirada que a la
       E5                BSUS4
tierra e...stremecio
(ESTO VA CON SUSTAIN   E-12--------------
     GUITAR I          B----12-9S10-10S12

C#m7                     A9          
Como un trueno escucho desde el cielo
    E5  BSUS4
su voz
      E--------------- 
      B--8P7-------7P5-- GUITAR I
C#m7                 A9                   
fuego eterno en tu mirada que a la tierra
E5        BSUS4
e...stremecio

PRECORO:

F#m                A9
Clame a mi Dios   el me escucho su
G-------------------------------------
D-4-4--4-4--4-4---7-7--7-7--7-7--7-7--
A-4-4--4-4--4-4---7-7--7-7--7-7--7-7--
E-2-2--2-2--2-2---5-5--5-5--5-5--5-5--

E           BSUS4
ma....no me dio
G-9-9-9-9----------
D-9-9-9-9---9-9-9-9
A-9-9-9-9---9-9-9-9
E-----------7-7-7-7
F#m             A9
oyo mi oracion partio el cielo en dos
G-------------------------------------
D-4-4--4-4--4-4---7-7--7-7--7-7--7-7--
A-4-4--4-4--4-4---7-7--7-7--7-7--7-7--
E-2-2--2-2--2-2---5-5--5-5--5-5--5-5--
C#m7          BSUS4
victoria me dio 
G-6-6-6-6----------
D-6-6-6-6---9-9-9-9
A-4-4-4-4---9-9-9-9
E-----------7-7-7-7

CORO

C#m7               A9
Tu mi roca mi refugio y mi
G-6-6-6-6--6-6-6-6--7-7-7-7-
D-6-6-6-6--6-6-6-6--7-7-7-7--
A-4-4-4-4--4-4-4-4--7-7-7-7--
E-------------------5-5-5-5--
E5        BSUS4
protecto...r oh oh
G-9-9-9-9----------
D-9-9-9-9---9-9-9-9
A-9-9-9-9---9-9-9-9
E-----------7-7-7-7
C#m7                 A9
tu me cuidas y me libras me escondiste
G-6-6-6-6--6-6-6-6--------------------
D-6-6-6-6--6-6-6-6--7-7-7-7--7-7-7-7--
A-4-4-4-4--4-4-4-4--7-7-7-7--7-7-7-7--
E-------------------5-5-5-5--5-5-5-5--
E5       BSUS4
en tu amor
G-9-9-9-9----------
D-9-9-9-9---9-9-9-9
A-9-9-9-9---9-9-9-9
E-----------7-7-7-7 

BSUS4            C#m7 
confiado en ti estoy 
G---4--S-----------6 
D---4--S-----------6 
A---2--S-----------4 
E-------------------

ESTROFA II
C#m7                    A9
Como un trueno escucho desde el
         E5   BSUS4
cielo su voz
            E--4-5-5S7-
            B----------
C#m7                 A9
fuego eterno en tu mirada que a la
       E5            BSUS4
tierra e...stremecio

                    SE SIGE LA MISMA SECUENCIA

CORO Misma secuencia

SOLO:
E--12H14P12H14P12H14P12H14-12P11-12P11-12P11-------------
B--12-----------------------------------------------------

E-7S11-12-11-------7S11-12-11--------------------------------
B-------------12---------------14------------------------------
G----------------13---------------14--------13H14P13-------
D-------------------------------------14H16-----------14H16--

E--------------------------------------------------------------
B--------------------------------------------------------------
G--13H14P13-------13H14P13-------13H14P13------------------
D------------14H16----------14H16----------------------------

E-------------------------------------------------------14-----
B----------------------------------------------9-12S16--------
G-11H13P11--9H11P9---------------------9-11-----------------
D---------------------11-9---------9-11-----------------------
A--------------------------11-9-11- ---------------------------

E-14-14--12-12--11-11--12-12--11-11--9-9--7-7---------------
B-14-14--12-12--12-12--12-12--12-12--9-9--7-7---------------
G--------------------------------------------------------------

E-14-14--12-12--11-11--12-12--11-11--9-9--7-7---------------
B-14-14--12-12--12-12--12-12--12-12--9-9--7-7---------------
G------------------------------------------------------------

E-12-11-12-11--12P11------------------------------
B-12-12-12-12-------14-12-------------------------
G--------------------------13-11----9-8-7----------
D------------------------------------------9-7------

CORO:
FINAL:

               C#m7                   A9
confiado en ti estoy
                G-6-6--6-6-----------6-6--6-6--
                D-6-6--6-6-----------6-6--6-6--
                A-4-4--4-4-----------4-4--4-4--
                E------------------------------
  GUITAR
  ELECTRI II        B------5P4---------------------------
                    G----------6-4S6------------4S6-6-6-6
                    D---------------------------4S6-6-6-6
G------------------
D-7-7--7-7--7-7--7-7
A-7-7--7-7--7-7--7-7
E-5-5--5-5--5-5--5-5 X2

  C#m7
                     Confiado en ti
G-6-6--6-6--6-6--6-6--
D-6-6--6-6--6-6--6-6--
A-4-4--4-4--4-4--4-4--
E--------------------- X2

BUENO HAY TIENEN TIENEN TODA LA CANCION COMPLETA ESPERO Y LA DISFRUTEN Y
PUEDAN BENDICIR A MUCHAS PERSONAS
Calificar esta versión:
Aviso: Este fichero es trabajo propio de su transcriptor y representa su interpretación personal de la canción. El material contenido en esta página es para exclusivo uso privado, por lo que se prohibe su reproducción o retransmisión, así como su uso para fines comerciales.
Más versiones de Como Un Trueno, Su Presencia
Como Un Trueno
acordes
Como Un Trueno (ver 2)
acordes
Como Un Trueno
tablatura
Descubre más canciones de Su Presencia