Cerca De Mí, Su Presencia (tablatura)

Autor: Anónimo | 34446 visualizaciones

INTRO:

Coloca el dedo sobre el puente del diapason y con la llama del dedo
medio toca la cuerda para que suene un poco muteada la cuerda al aire
mientras vas suviendo el volumen poco a poco

GUIT     E-0-0-0-0-0-0-0-0-.........
  I      B-------------------------------

        C#m              D#aug             E
      G---------------------------------------------------
GUIT  D-6-6-6-6-6-6-6-6--9-9-9-9-9-9-9-9--9-9-9-9-9-9-9-9-
 II   A-4-4-4-4-4-4-4-4--6-6-6-6-6-6-6-6--7-7-7-7-7-7-7-7-
      E---------------------------------------------------



GUIT     E-0-0-0-0-0-0-0-0-.........
  I      B-------------------------------

         C#m              D#aug             E
GUIT   G---------------------------------------------------
  II   D-6-6-6-6-6-6-6-6--9-9-9-9-9-9-9-9--9-9-9-9-9-9-9-9-
       A-4-4-4-4-4-4-4-4--6-6-6-6-6-6-6-6--7-7-7-7-7-7-7-7-
       E---------------------------------------------------



GUIT E----------------------------------------------------
 I   B-2-2-2-5-5-5--2-2-2-5-5-5--0-0-0-4-4-4--0-0-0-4-4-4-
     G----------------------------------------------------

      C#m              D#aug             E
     G---------------------------------------------------
GUIT D-6-6-6-6-6-6-6-6--9-9-9-9-9-9-9-9--9-9-9-9-9-9-9-9-
 II  A-4-4-4-4-4-4-4-4--6-6-6-6-6-6-6-6--7-7-7-7-7-7-7-7-
     E---------------------------------------------------




GUIT E---------------------------------------------------
 I   B-4-4--2-2--1-2--1-1--4-4--2-2--1-2--1-1------------
     G---------------------------------------------------


      C#m              D#aug             E
     G---------------------------------------------------
GUIT D-6-6-6-6-6-6-6-6--9-9-9-9-9-9-9-9--9-9-9-9-9-9-9-9-
 II  A-4-4-4-4-4-4-4-4--6-6-6-6-6-6-6-6--7-7-7-7-7-7-7-7-
     E---------------------------------------------------

ESTROFA:
A            B              E
Quiero estar donde tu estas señor
A            B             E
descansar y encontrar tu amor
A            B                E
tu dulce voz fluyendo a mi al rededor
E----------------------------------------------------
B-2-2-2-5-5-5--2-2-2-5-5-5--0-0-0-4-4-4--0-0-0-4-4-4-
G----------------------------------------------------

E---------------------------------------------------
B-4-4--2-2--1-2--1-1--4-4--2-2--1-2--1-1------------
G---------------------------------------------------
A        B            E
nada mas nada mas que tu voz
E----------------------------------------------------
B-2-2-2-5-5-5--2-2-2-5-5-5--0-0-0-4-4-4--0-0-0-4-4-4-
G----------------------------------------------------

E---------------------------------------------------
B-4-4--2-2--1-2--1-1--4-4--2-2--1-2--1-1------------
G---------------------------------------------------

PRE CORO:
  C#m                 B                      A
y postrado aqui en tu presencia encuentro paz
E-4-------------------2-------------------5-4----5-4-
B-5-------------------4----------------2S5---2S5-----
G-6-------------------4------------------------------
 C#m                 B               A
y confiado en ti anhelo siempre estar
E-4-------------------2-------------------5-4----5-4-
B-5-------------------4----------------2S5---2S5-----
G-6-------------------4------------------------------
  C#m                 B               A
y postrado aqui en tu presencia puedo dar
G-6-------------------4---------------2----
D-6-------------------4---------------2----
A-4-------------------2---------------0----
E------------------------------------------
  C#m                 B          A          B
y confiado en ti anhelo siempre estar OH UH OH
G-6-------------------4----------2-----------4-
D-6-------------------4----------2-----------4-
A-4-------------------2----------0-----------2-
E----------------------------------------------

CORO:
  C#m        A                 E   B
y quiero que tu estes cerca de mi
   C#m          A               E   B
tu sabes que no podre vivir sin ti


 C#m              D#aug            E
       G---------------------------------------------------
GUIT   D-6-6-6-6-6-6-6-6--9-9-9-9-9-9-9-9--9-9-9-9-9-9-9-9-
 I     A-4-4-4-4-4-4-4-4--6-6-6-6-6-6-6-6--7-7-7-7-7-7-7-7-
       E---------------------------------------------------

GUIT   E-(12)-(12)-(12)  EN ARMONICOS
 II    B-(12)-(12)-(12)
       G--------------
       D--------------

ESTROFA
PRE CORO
CORO:
 C#m        A                 E   B
y quiero que tu estes cerca de mi
   C#m          A               E   B     G#
tu sabes que no podre vivir sin ti

 C#m        A                 E   B
y quiero que tu estes cerca de mi
   C#m          A               E   B     G#
tu sabes que no podre vivir sin ti

SOLO:
      Bm           A             E
E-10-9-7--5S7--9-7-5--2S5--5-4-5S7-5--5-4-5S7-5--
B------------------------------------------------

      Bm           A          E             B      G#
E-10-9-7-7S14--9-7-5-5S12-----------------------------
B-------------------------10S12--9S10--9-10S12--12^13-

CORO:
  C#m        A                 E   B
y quiero que tu estes cerca de mi
   C#m          A               E   B     G#
tu sabes que no podre vivir sin ti  oh uh oh

C#m        A                 E   B
y quiero que tu estes cerca de mi
   C#m          A               E   B     G#
tu sabes que no podre vivir sin ti  oh uh oh

FINAL:
   C#m           A             E            B
te quiero a ti y solo a ti te quiero ati mi señor
   C#m           A             E            B
te quiero a ti y solo a ti te quiero ati mi señor


ESPERO LES SEA DE MUCHA BENDICION ESTE TEMA.
DUDAS HE INQUIETUDES ESCRIBANME
Calificar esta versión:
Aviso: Este fichero es trabajo propio de su transcriptor y representa su interpretación personal de la canción. El material contenido en esta página es para exclusivo uso privado, por lo que se prohibe su reproducción o retransmisión, así como su uso para fines comerciales.
Más versiones de Cerca De Mí, Su Presencia
Cerca De Mi
acordes
Cerca De Mí
tablatura
Cerca De Mí (ver 2)
tablatura
Descubre más canciones de Su Presencia