Hunting High And Low, Stratovarius (tablatura)

Autor: manuel266 | 43318 visualizaciones

Tune down a half step


Main Theme
Riff 1a (4x)

e(---------------------------------------------------------------)
B(----------------------------------------------8----------------)
G(---7---9---7------7---9---7------7---9---10-------10---9---7---)
D(-7---7---7---7--7---7---7---7--7---7---7----7---7----7---7---7-)
A(---------------------------------------------------------------)
E(---------------------------------------------------------------)

Riff 1b

e(-----------------------------------)---------
B(----------------8--------11---10---)-10===---
G(---7---9---10-------10-------------)---------
D(-7---7---7----7---7----7----7----7-)---------
A(-----------------------------------)---------
E(-----------------------------------)---------


Verse 1                         Pre-Chorus 1
Riff 2 (clean, let ring) (2x)   Riff 3

e(----------------------------(---------------------------------
B(---6=---5=---3=---5=--------(---------------------------------
G(---7=---5=---3=---5=--------(--------3=---5=--------3=---5=---
D(---7=---5=---3=---5=--------(---3=---3=---5=---3=---3=---5=---
A(---5=---3=---1=---3=--------(---3=---1=---3=---3=---1=---3=---
E(----------------------------(---1=-------------1=-------------

e(--------------------------------------------------)
B(--------------------------------------------------)
G(---7=--------3=---5=---3===---5---------------5---)
D(---7=---3=---3=---5=---3===---5---------------5---)
A(---5=---3=---1=---3=---1===---3-3-3-3-3-3-3-3-3---)
E(--------1=----------------------------------------)
P.M.                              . . . . . . .


Chorus 1
Riff 4 (2x)

e(-------------------------------------------)
B(-------------------------------------------)
G(---7=---3=---5=---2=---3=---4=---5=---6=---)
D(---7=---3=---5=---2=---3=---5=---5=---7=---)
A(---5=---1=---3=---0=---1=---2=---3=---4=---)
E(-------------------------------------------)


Main Theme   - Riff 1a (2x)
Verse 2      - Riff 2  (2x)
Pre-Chorus 2 - Riff 3
Chorus 2     - Riff 4  (2x)


Guitar Solo
Riff 5 (2x)

e(--------------------------------------------------------------
B(-10-6-------6-8-5-------6-8-10-10-10-10-6---13-13-13-13-11-10-
G(------7---7-------5-----------------------5-------------------
D(--------7-----------5=----------------------------------------
A(--------------------------------------------------------------
E(--------------------------------------------------------------

   1st ending            2nd ending
e(---------------------(------------)
B(---------11-10-------(------------)
G(-12(14)=-------12=---(-12===------)
D(---------------------(------------)
A(---------------------(------------)
E(---------------------(------------)


Chorus 3 - Riff 4 (2x)


Chorus 4/Outro
Riff 6 (4x until fade out)

Guitar 1
e(--------------------------------------------------------)
B(--------------------------------------------------------)
G(---9=------5=----7=-----4=----5=----6=----7=-----8=-----)
D(---9=------5=----7=-----4=----5=----7=----7=-----9=-----)
A(---7=------3=----5=-----2=----3=----4=----5=-----6=-----)
E(--------------------------------------------------------)
Guitar 2                                                  )
e(--------------------------------------------------------)
B(---8-10-12-5-7-8-7-8-10-3-5-7-5-7-8-5-7-8-7-8-10-7-8-10-)
G(---9-11-12-5-7-9-7-9-11-4-5-7-5-7-9-6-7-9-7-9-11-8-9-11-)
D(--------------------------------------------------------)
A(--------------------------------------------------------)
E(--------------------------------------------------------)
Guitar 3



Symbol explanation:


P.M.  Palm Mute (notes marked with dot)
/     slide
=     sustained
Calificar esta versión:
Aviso: Este fichero es trabajo propio de su transcriptor y representa su interpretación personal de la canción. El material contenido en esta página es para exclusivo uso privado, por lo que se prohibe su reproducción o retransmisión, así como su uso para fines comerciales.
Más versiones de Hunting High And Low, Stratovarius
Hunting High And Low
tablatura
Hunting High And Low (ver 2)
tablatura
Descubre más canciones de Stratovarius