Black Diamond, Stratovarius (tablatura) (ver 2)

Autor: scania | 43977 visualizaciones

este en realidad es el intro de black diamond gran tema de stratovarius que se toca con piano pero se puede tocar en la guitarra y es muy facil

//todo muy rapido//
e|---4---2---4---0---4---4-|
b|-2-------------------4---|
g|-------------------------|   repetir x2
d|-------------------------|
a|-------------------------|
E|-------------------------|



e|---5---4---5---2---5---0---5-|
b|-2---------------------------|
g|-----------------------------|
d|-----------------------------|
a|-----------------------------|
E|-----------------------------|



e|---5---4---5---2---5---0---5-|
b|-4---------------------------|
g|-----------------------------|
d|-----------------------------|
a|-----------------------------|
E|-----------------------------|



e|---2---0---2---2---2-|
b|-0-----------4---2---|
g|---------------------|
d|---------------------|
a|---------------------|
E|---------------------|



e|---2---0---2---0---2---5---4-|
b|-0-----------4---------------|
g|-----------------------------|
d|-----------------------------|
a|-----------------------------|
E|-----------------------------|
Calificar esta versión:
Aviso: Este fichero es trabajo propio de su transcriptor y representa su interpretación personal de la canción. El material contenido en esta página es para exclusivo uso privado, por lo que se prohibe su reproducción o retransmisión, así como su uso para fines comerciales.
Más versiones de Black Diamond, Stratovarius
Black Diamond
tablatura
Black Diamond (ver 2)
tablatura
Descubre más canciones de Stratovarius