For The Love Of God, Steve Vai (tablatura) (ver 2)

Autor: fedekpo | 40572 visualizaciones



e/-----------------12-10-7-------------------/
B/--------10-10a12---------8-10a12---15-10---/
G/------7------------------------------------/
D/--7a9--------------------------------------/
A/-------------------------------------------/
E/-------------------------------------------/

e/-----------------12-10-7-------------------/
B/--------10-10a12---------8-10a12---15-10---/
G/------7------------------------------------/
D/--7a9--------------------------------------/
A/-------------------------------------------/
E/-------------------------------------------/

e/-----------------12-10-7-------------------/
B/--------10-10a12---------8-10a12---15-10---/
G/------7------------------------------------/
D/--7a9--------------------------------------/
A/-------------------------------------------/
E/-------------------------------------------/

e/--12-10-7------------------------------------/
B/----------8-10-10a12-12-12a10----------------/
G/-------------------------------12-11-9-----9-/
D/----------------------------------------12---/
A/---------------------------------------------/
E/---------------------------------------------/



Mucho mas q esto no se 
spero q ls haya gustado





Calificar esta versión:
Aviso: Este fichero es trabajo propio de su transcriptor y representa su interpretación personal de la canción. El material contenido en esta página es para exclusivo uso privado, por lo que se prohibe su reproducción o retransmisión, así como su uso para fines comerciales.
Más versiones de For The Love Of God, Steve Vai
For The Love Of God
tablatura
For The Love Of God (ver 2)
tablatura
Descubre más canciones de Steve Vai