Perfume De Gardenias, Sonora Santanera (bajo)

Autor: Anónimo | 45316 visualizaciones

Perfume de gardenias
Intro
G[----------------------------------------------------------------------]
D[------------------------------2---2-2---0-----------------------------]
A[--------------0-1-2----2-2------------------3---3-3---3---------------]
E[---3----3-3-----------------------------------------------------------]

G[----------------------------------------------------------------------]
D[----------------------------------------------------------------------]
A[--------------------0----0-5---5--------------------------------------]
E[---3----3-3-----3-----------------3-----3--3--3-----(0)---------------]

coro
perfume de...
G[----------------------------------------------------------------------]
D[------------------------------2---2-2---0-----------------------------]
A[--------------0-1-2----2-2------------------3---3-3---3---------------]
E[---3----3-3-----------------------------------------------------------]




Bellísimos... G[----------------------------------------------------------------------] D[----------------------------------------------------------------------] A[----------------------0--0-0--0------5--5-5--5------------------------] E[---3----3-3---3-------------------------------------(3)---------------] Tu tienes una… G[----------------------------------------------------------------------] D[------------------------------2---2-2---0-----------------------------] A[--------------0-1-2----2-2------------------3---3-3---3---------------] E[---3----3-3-----------------------------------------------------------] Tus cabellos... G[----------------------------------------------------------------------] D[----------------------------------------------------------------------] A[----------------------0--0-0--0------5--5-5--5------------------------] E[---3----3-3---3-------------------------------------(3)---------------] Tu cuerpo es... G[----------------------------------------------------------------------] D[----2--2-2--2----------------2--2-2--2--------------------------------] A[----------------2--2-2--2----------------5--5-5--5--------------------] E[-------------------------------------------------------3--3-3--3------] Cuando te ven... G[----------------------------------------------------------------------] D[--------------------2--2-2--2-----------------------------------------] A[----2--2-2--2--------------------2--2-2--2----------------------------] E[----------------------------------------------------------------------] y asi si se repite toda la cancion si tienes duda sobre el ritmo, agreguen escoses_parlanchin@hotmail.com
Calificar esta versión:
Aviso: Este fichero es trabajo propio de su transcriptor y representa su interpretación personal de la canción. El material contenido en esta página es para exclusivo uso privado, por lo que se prohibe su reproducción o retransmisión, así como su uso para fines comerciales.
Más versiones de Perfume De Gardenias, Sonora Santanera
Perfume De Gardenias
acordes
Perfume De Gardenias
bajo
Descubre más canciones de Sonora Santanera