Libres, Sonohra (tablatura)

Autor: Nigel Brandon | 34209 visualizaciones

Sonohra - Libres

Intro:

e|---------------------------------------------
B|----0-----3---------1--0h1p0------0-7h8p7----
G|---2----2----0----0--0------0----0-----------
D|-------0-0--0----2-2-------------------------
A|------0---------3-------------3/7------------
E|-3-------------------------------------------

e|-------------------------------
B|--------3----1-3---------------
G|------0-----0-0-0--------------
D|-----4-4---2---------0h2p0-----
A|--3/5-----3-------2h3-----3~---
E|-------------------------------

VERSO1:

C9           D                        _
No vivo lo suficiente                  |
     G         Dsus2/F#      Em7       | 
Esto es lo que piensas de mí           |
C9                         D           |
tú y yo, una historia importante       |
     G       Dsus2/F#      Em7         |}Se arpegia,despues en pero dile al amor ¿qué es?             | toda la canción se
     Am                     F          | rasguea
Y me pierdo en un mundo que yo solo sé | 
 C                    G                |
ahora te explico como es.             _|
                                       
CORO:

D                     C9
Libres, desde siempre Libres
             G          Em7        C9
y no importa nada, tú y yo en libertad
  D                   C9
desátame y llévate la soledad
               G
que has dejado dentro en mi
               Em7  D
yo quiero solo amar
      C9                              G
pero siempre quieres más de lo que das.

VERSO2:

C9                D 
Cierras ahora los ojos
      G        Dsus2/F#   Em7
estás sola en tu habitación
 C9                D 
la respuesta está clara
      G        Dsus2/F#   Em7
Sentimiento contra la razón.
        Am                     F
Si ves que nuestro amor cae en la oscuridad
  C                    G
defiéndelo hasta el final.

CORO:

D                     C9
Libres, desde siempre Libres
             G          Em7        C9
y no importa nada, tú y yo en libertad
D                       C9
Libres como ángeles que volarán
               G
muy alto entre árboles
           Em7 D
y no se caerán
 C9                       G
porque para mí tú eres mucho más.

SOLO.

CORO:

D                     C9
Libres, desde siempre Libres
             G          Em7        C9
y no importa nada, tú y yo en libertad
D                       C9
Libres como ángeles que volarán
               G
muy alto entre árboles
           Em7 D
y no se caerán
       C9                     G
porque para mí tú eres mucho más.

    C9      Em7   Dsus2/F#   G
e|---3---|---3---|---x---|---3---
B|---3---|---3---|---3---|---3---
G|---0---|---0---|---2---|---0---
D|---2---|---2---|---0---|---0---
A|---3---|---2---|---0---|---2---
E|---x---|---0---|---2---|---3---
Calificar esta versión:
Aviso: Este fichero es trabajo propio de su transcriptor y representa su interpretación personal de la canción. El material contenido en esta página es para exclusivo uso privado, por lo que se prohibe su reproducción o retransmisión, así como su uso para fines comerciales.
Más versiones de Libres, Sonohra
Libres
acordes
Libres
tablatura
Descubre más canciones de Sonohra