Teenage Riot, Sonic Youth (tablatura)

Autor: hendrixanderson | 26392 visualizaciones

solo es el principio (està papa) sino te lo aprendes de memoria mejor deja la guitarra ok ok? vava 

-------------------------------------------------------------
------------13331------------13331------------13331----------
---0--00---2-2222---00000---2-2222---00000---2-2222----------
---0--00------------00000------------00000-------------------
---2--22------------22222------------22222-------------------
-------------------------------------------------------------


parte donde empieza a cantar thurton moore:

-------------------------------------------------------------
-------------------------------------------------------------
-----7775----------------------------------------------------
-----7775--02254425------------------------------------------
---5---------------------------------------------------------
-------------------------------------------------------------
Calificar esta versión:
Aviso: Este fichero es trabajo propio de su transcriptor y representa su interpretación personal de la canción. El material contenido en esta página es para exclusivo uso privado, por lo que se prohibe su reproducción o retransmisión, así como su uso para fines comerciales.