Mary Lou, Sonata Artica (tablatura)

Autor: VyRoNmetal | 24646 visualizaciones



Tune down 1/2 step!  

  Acoustic Guitar (Steel-stringed)                      Verse 1
E---0-----0-----1-----1-----0-----0-----1-----1------||------1~--1---1---1------1---|
B-----3-----3-----3-----3-----3-----3-----3-----3----||---3------3---3-3-3------1-1-|
G-------2-----2-----2-----2-----2-----2-----2-----2--||---2------2---2-2-2----2-2-|
D---0------------------------------------------------||---0------0-----0--------3-|
A----------------------------------------------------||-------------------------3-|
E----------------------------------------------------||---------------------------|

E-----1-----0---0---0---0------1---1-------0---0---/1---1---1---1-------1--------1--|
B-/3--3-3---1---1---1---1----3-3-3--/-1--1-1-1---/3---3---3-3-3-------1-1--/3--3-3|
G-/3--3-3---0---0---0-0-0----3-3-3--/-0--0-0-0---/2---2---2-2-2-----2-2--/3--3-3|
D-/3--3-3---2---2-----2--------3----/-2----2-----/0---0-----0---------3--/3----3|
A-/1----1---3---3-----3-------------/-3----3--------------------------3--/1----1|
E---------------------------------------------------------------------------------|

                                              Bridge
E---0---0---0---0-------1---1-------0---0----------3---3------1---1------0---0---1--|
B---1---1---1-1-1---3--3-3-3--/-1--1-1-1---|------3---3--/1--1-1-1---1--1-1-1---3--|
G---0---0---0-0-0---3--3-3-3--/-0--0-0-0---|------3-3-3--/2--2-2-2---0--0-0-0---2--|
D---2---2-----2-----3----3----/-2----2-----|---5----5----/3----3-----2----2-----0--|
A---3---3-----3-----1---------/-3----------|---5----5----/0----------3-------------|
E-----------------------------------------------3-----------------------------------|

E--1---1------3---3------1---1------0---0---1---1---1------------0---0---/1---1---1-|
B--3-3-3------3-3-3--/1--1-1-1---1--1-1-1---3---3-3-3------1---1-1-1---/3---3---3-|
G--2-2-2------3-3-3--/2--2-2-2---0--0-0-0---2---2-2-2---





Comentarios del colaborador: bueno aca posteo mary lou espero que les guste

Calificar esta versión:
Aviso: Este fichero es trabajo propio de su transcriptor y representa su interpretación personal de la canción. El material contenido en esta página es para exclusivo uso privado, por lo que se prohibe su reproducción o retransmisión, así como su uso para fines comerciales.