Black Sheep, Sonata Artica (acordes)

Autor: VyRoNmetal | 31487 visualizaciones



Tune down 1/2 step!

  Intro [Gtr.1]
E-----------------------------------------------------------------------------------|
B---15-h15h17----15-17-18-17h18p17-15-17-15-13
h13h15-12-13-15--12-13-15-12-13|
G----.-----------14------------------------------------------------------/----------|
D------------------------------------------------------------------------/----------|
A------------------------------------------------------------------------/----------|
E-----------------------------------------------------------------------------------|

E-----------------------------------------------------------------------------------|
B-15--15h17----15-17-18-17h18p17-15-17-15-13
h13h15-12-13-15-12-13-15-
-13-15|
G------.-------14-----------------------------------------------------/-------------|
D---------------------------------------------------------------------/-------------|
A---------------------------------------------------------------------/-------------|
E-----------------------------------------------------------------------------------|

E-----------------------------------------------------------------------------------|
B--15h17----15-17-18-17h18p17-15-17-15-13
h13h15-12-13-15--12-13-15-12-13-15--|
G---.-------14------------------------------------------------------/---------------|
D-------------------------------------------------------------------/---------------|
A-------------------------------------------------------------------/---------------|
E-----------------------------------------------------------------------------------|

E---------------------------------------------------------------------------------/-|
B-13-15h17----15-17-18-17h18p17-15-17-15-13
h13h15-12-13-15--12-13-15-12-13-15----|
G--.-------14------------------------------------------------------/----------------|
D------------------------------------------------------------------/----------------|
A------------------------------------------------------------------/----------------|
E-----------------------------------------------------------------------------------|

                                                Intro [Gtr.2]
E-13----12-------12--------------------------||-------------------------------------|
B----15----15-13----15-12-13-----------------||-------------------------------------|
G----------------------------14-13-14~------||----2--/--5--/--7----4~-----2--/--5-|
D--------------------------------------------||----2--/--3--/--5----2~-----2--/--3-|
A--------------------------------------------||----0------------------------0-------|
E--------------------------------------------||-------------------------------------|

                                                           [end Intro]   Verse 1
E---------------------------------------------------------------------||------------|
B---------------------------------------------------------------------||------------|
G--/-7----4~----2--/--5--/--7----4~----2--/--5--/--7----4~----5~---||---9-------9|
D--/-5----2~----2--/--3--/--5----2~----2--/--3--/--5----2~----3~---||---7-------7|
A----------------0-----------------------0----------------------------||------0-0---|
E---------------------------------------------------------------------||------------|
                                                                             pm...|

E-----------------------------------------------------------------------------------|
B-----------------------------------------------------------------------------------|
G------10-------10-------9-------9----------------------------7-----5----5--4--/-9-|
D-------7--------7-------7-------7--------10~---9------7-----7-----5----5---5--/-7-|
A--0-0-----0-0------0-0-----0-0-----0-0---10~----10-----7-----5-----3----3--2------|
E------------------------------------------8~---7------5---------------------------|
  pm..|   pm..|    pm..|   pm..|   pm..|

E-----------------------------------------------------------------------------------|
B-----------------------------------------------------------------------------------|
G-------9------10------10-------9-------9----------------------------7----5----5--4|
D-------7-------7-------7-------7-------7--------10~----9-----7-----7----5----5---5|
A--0-0-----0-0-----0-0-----0-0-----0-0-----0-0---10~-----10----7-----5----3----3--2|
E-------------------------------------------------8~--~-7-----5--------------------|
  pm..|   pm..|   pm..|   pm..|   pm..|   pm..|

     Bridge
E-----------------------------------------------------------------------------------|
B--|--------------------------------------------------------------------------------|
G--|--------------------------------------------------------------------------------|
D--|--------------/-2-2-2-2-2-2-/-5-5-5-5-5-5--5-5-5-5-5-5--/--10-10-10-10-10-10--10|
A--|--3-3-3-3-3-3-/-0-0-0-0-0-0-/-3-3-3-3-3-3--2-2-2-2-2--/---8--8--8--8--8--8--7|
E-----1-1-1-1-1-1-------------------------------------------------------------------|
     pm.............................................................................

                                               Chorus
E-----------------------------------------------------------------------------------|
B--------------------------------------------|--------------------------------------|
G--------------------------------------------|---2-----5-----7---/9-10-7-9----7-----|
D-10-10-10-10-10--9-9-9-9-9-9---------------|---2-----5-----7-------------10---9-10|
A--7--7--7--7--7--6-6-6-6-6-6---2----------|---0-----3-----5----------------------|
E--------------------------------0-0-0-4-4-----------------------------------------|
 ..........................................|

E-----------------------------------------------------------------------------------|
B-----------------------------------------------------------------------------------|
G--------------------2-----5----------------------------------------------------2~--|
D--3---2-----------2-----5----------------------------------------------------2~--|
A------5---3-5-2-3---0-----3---5-5-5-5-3-3-3-2-2-2--------------------------0---|
E------------------------------------------------------5-5-5-5





Comentarios del colaborador: bueno el tema esta bueno y no es tan complicado ni tan facil pero esta muy bueno.... asi que a darle hasta que salga... VyRoNmetal

Calificar esta versión:
Aviso: Este fichero es trabajo propio de su transcriptor y representa su interpretación personal de la canción. El material contenido en esta página es para exclusivo uso privado, por lo que se prohibe su reproducción o retransmisión, así como su uso para fines comerciales.