Pequeñas Cosas, Son By Four (acordes)

Autor: Anónimo | 26830 visualizaciones

amcc9emfg
intro C Em Am F

C                        Em
cada segundo camina el reloj
Am                      F
de gota a gota el mar seco
C                          Em
son tantas cosas q viven y mueren
Am              Em             F   [PUNTEO]*
y hace tiempo esta muriendo el amor

C                          Em             F
q se perdio si todo este mundo era de los dos

C                                    Em
dime q paso se fue se murio el amor porq
Am                                          F
por pequeñas cosas q ahora q es muy tarde se ven
C                                   Em
dime q paso se fue se murio el amor porq
Am                                 F
porq siendo grande el amor vive de el
G                 C
pequeña cosas tal vez

intro C Em Am F

C                          Em
pequeñas cosas un beso una flor
Am                       F   [PUNTEO]*
una caricia tal vez sin razon

C                          Em            F
q sucedio fueron tantas cosas entre tu y yo

coro x2

C                           Em
no existen cosas mas grandes q las
Am                   Em       F
pequeñas cosas nos faltaron amor
      G                      C    C9
nos falta.....ron a............mor.


NOTAS

     C             Am           Em            F
1|---------| 1|----------| 1|---------| 1|--------1--|
2|------1--| 2|-------1--| 2|---------| 2|--------1--|
3|---------| 3|----2-----| 3|---------| 3|------2----|
4|----2----| 4|---2------| 4|-----2---| 4|----3------|
5|--3 -----| 5|----------| 5|---2-----| 5|--3--------|
6|---------| 6|----------| 6|---------| 6|--------1--|

      C9           [PUNTEO]*
1|-----------| 1|---0/1---0-----|
2|-----3-----| 2|-----------1---|
3|-----------| 3|---------------|
4|--------2--| 4|---------------|
5|-----3-----| 5|---------------|
6|---3-------| 6|---------------|
Calificar esta versión:
Aviso: Este fichero es trabajo propio de su transcriptor y representa su interpretación personal de la canción. El material contenido en esta página es para exclusivo uso privado, por lo que se prohibe su reproducción o retransmisión, así como su uso para fines comerciales.