Zoom, Soda Stereo (tablatura) (ver 3)

Autor: Anónimo | 21316 visualizaciones

HOLA A TODOS! YA QUE MI ANTERIOR TRANSCRIPCIÓN DE ESTE TEMA ESTABA MAL,
TRABAJE (por asi decirlo) PARA CORREGIRLA Y ACA ESTA!, PARA MI ESTA BIEN
PERO QUIERO QUE SE FIJEN USTEDES.
CUALQUIER COSA QUE NO ENTIENDAN, ALGÚN ERROR
O QUIERAN OTRA TRANSCRIPCIÓN DE SODA
MANDENMEN UN MAIL A: seba-strike@hotmail.com
Y SE LO CONTESTARE GRACIAS CHAU!

Esus4    Esus4 
E-----   E------
B-----   B------
G-2---   G-3----
D-2---   D-2----
A-2---   A-2----
E-----   E------

Intro: E Esus4 E Esus4

E         Esus4  A/E     E
Quiero un zoom anatómico
           Esus4    A/E
Quiero el fin del secreto
E
Entre tus labios de plata
      Esus4       Esus4
Y mi acero inolvidable
           E                          A/E
Quiero un loop,                 protagónico
            G-7-7/9-7-7/9-7-7/9-

Ven...pruébame y verás ****************************
que todos somos adictos                           * ESTA ESTROFA SE
a estos fuegos de artificio.                      * TOCA IGUAL QUE
Voy a hacerte                                     * LA ANTERIOR
un macro porno intenso.                           *
                     G-7-7-7-7-7-7-7-9-7-9-       *
Lo que sucede                                     *
nunca suele estar                                 *
donde se piensa.                                  *
Zoom                   ****************************

 Solo:
E-----------------------------0/16---------------------
B-11b-11-11-11b-11b-11-11-11b-----10-12--------------9-
G--------------------------------------11-9------------
D------------------------------------------11-9-11-----

E--24/16--------------11/0-
B-------10-12--------------
G------------11-9--9-------
D----------------11-11-----

G#m
Por aquí ya estuve
       A      E
te largas a reir
           G#m
en tus comisuras
           B--16/14/12/10/12-
           D--13/11/9/7/9----
         B
dame un zoom
           G-8-9-8-9-8-9-8-9-8-
  A    G#m        E
  Luz, cámara, acción
B-10--9-------7---5---
D-7---6-------4---2---

Solo Final:

E------9--9--9--9--9--9---9--12b---
B--11b--11-11-11-11-11-11b-11------

E----9--12--9--12--9--12--12--12--9---
B--11-11--11-11--11-11--11--11--11-11-

E--12--12--12--12--12--9--12-0--
B----11--11--11--11--11-11---0--
G----------------------------1--
D----------------------------2--
A----------------------------2--
E----------------------------0--
Aviso: Este fichero es trabajo propio de su transcriptor y representa su interpretación personal de la canción. El material contenido en esta página es para exclusivo uso privado, por lo que se prohibe su reproducción o retransmisión, así como su uso para fines comerciales.
Más versiones de Zoom, Soda Stereo
Zoom
acordes
Zoom (ver 2)
acordes
Zoom (ver 3)
acordes
Zoom
tablatura
Zoom (ver 2)
tablatura
Zoom (ver 3)
tablatura
Descubre más canciones de Soda Stereo