Cancion Animal, Soda Stereo (tablatura)

Autor: Anónimo | 41610 visualizaciones

Hola a Todos,.....Esta es mi version completa de Cancion Animal
si encuentran errores, mandenmelos para corregirlos. 
Espero que disfruten la cancion y saludos a San Luis Rio Colorado Sonora, 
y a Mexicali Baja California(en especial al CBTIS 21 de Mexicali
y a la Tecnica #4 de San Luis) 

INTRO

  Em       Em7
e-12----------------12------------
B---12--------8~------12----------
G-----12-----7----------12--------
D-----------9---------------------
A----------7----------------------
E---------------------------------

VERSOS (Todos los versos parecen ir igual, solo con algunas 
          variaciones)

Hipnotizmo de un flagelo dulce tan dulce.........
 Em7     Em
e--------12------
B----8~----12----
G---7--------12--
D--9-------------
A-7--------------
E----------------

PRE-CORO (Aqui toca G, A, G cambia a F#m, y sigue inmediatamente 
           igual que en los versos)

Cuando el cuerpo no espera lo que llaman amor.........
  G              A     G             F#m
e-3--------------5-----3--------------2--------
B-3--------------5-----3--------------2--------
G-4--------------6-----4--------------2--------
D-5--------------7-----5--------------4--------
A-5--------------7-----5--------------4--------
E-3--------------5-----3--------------2--------  

CORO (Cuando dice cancion animal, la pequeña union que 
        hay ahi,2/3/2 debe hacerse un poco rapido)

Mas, se pide y se vive......
  C   G      D      Em
e-0---3------2------/7-7-7-7-----
B-1---3------3------/8-8-8-8-----
G-0---0------2------/9-9-9-9-----
D-2---0------0------/9-9-9-9-----
A-3---2------0------/x-x-x-x-----
E-0---3------0------/x-x-x-x----- 

Cancion Animal.........
  C     Em     Em 
e-x-----x------------------------
B-x-----x------------------------
G-x-----x------------------------
D-2-----2------2-5-3--2/3/2------
A-3-----2------------------3-0~--
E-x-----x------------------------

Cancion Animal.........
  C     Em     Em 
e-x-----x------------------------
B-x-----x------------------------
G-x-----x------------------------
D-2-----2------2-5-3--2/3/2------
A-3-----2------------------3-0~--
E-x-----x------------------------

SOLO (Con distorcionador suena muy parecido a la cancion)

e------------------------------------------------------------------------
B------------------------------------------------------------------------
G------------------------------------------------------------------------
D-0/15-12-15-12----12-13-12--12-13-12-13/15-12-15/18-16-15-16/15-16/15~--
A--------------~/15--------15--------------------------------------------
E------------------------------------------------------------------------

e-------------------------------------------------------------------------------
B-0/13-13~-13~-13~-13~-11/13-14-13-11-13--11/13-14-13-11-13--11/13-14/13-14/13~-
G-------------------------------------------------------------------------------
D-------------------------------------------------------------------------------
A-------------------------------------------------------------------------------
E-------------------------------------------------------------------------------

Fuente original: LaCuerda
Colaborador original: Esteban Levi Perez Corona [estebanlevi@hotmail.com]
Calificar esta versión:
Aviso: Este fichero es trabajo propio de su transcriptor y representa su interpretación personal de la canción. El material contenido en esta página es para exclusivo uso privado, por lo que se prohibe su reproducción o retransmisión, así como su uso para fines comerciales.
Más versiones de Cancion Animal, Soda Stereo
Cancion Animal
acordes
Cancion Animal (ver 2)
acordes
Cancion Animal
tablatura
Cancion Animal (ver 2)
tablatura
Canción Animal
bajo
Canción Animal (ver 2)
bajo
Descubre más canciones de Soda Stereo