Chasing Cars, Snow Patrol (bajo)

Autor: fherxo | 21061 visualizaciones



Intro (Guitar)

Verse 0.05
G|--------------------|
D|-7~---6~---12~---7~-| X2
A|--------------------|
E|--------------------|

Chorus
G|--------------------|
D|-7~---6~---12~---7~-|
A|-~------------------|
E|--------------------|

Verse
G|--------------------|
D|-7~---6~---12~---7~-| X2
A|--------------------|
E|--------------------|

Chorus
G|--------------------|
D|-7~---6~---12~---7~-| X2
A|-~------------------|
E|--------------------|

Verse
G|-----------------------------------------|
D|-7~---6~---12~---7~---7~---6~---12~---7~-|
A|-----------------------------------------|
E|-----------------------------------------|

Chorus
G|-----------------------------------------------------------------------------------|
D|-7777777777777777-6666666666666666-121212121212121212121212121212-7777777777777777-| X4
A|-----------------------------------------------------------------------------------|
E|-----------------------------------------------------------------------------------|






Calificar esta versión:
Aviso: Este fichero es trabajo propio de su transcriptor y representa su interpretación personal de la canción. El material contenido en esta página es para exclusivo uso privado, por lo que se prohibe su reproducción o retransmisión, así como su uso para fines comerciales.
Más versiones de Chasing Cars, Snow Patrol
Chasing Cars
acordes
Chasing Cars
bajo
Descubre más canciones de Snow Patrol