Psychosocial, Slipknot (tablatura) (ver 4)

Autor: tito10 | 34132 visualizaciones



|-----------------------------|-------------------------------|
|-----------------------------|-------------------------------|
|-----------------------------|-------------------------------|
|-----------------------------|-------------------------------|
|-----------[6]-(6)-----------|---------------[6]-(6)---------|
|-0-0-3-0-0---------0-3h5-0-0-|-0-0-0-0-3-0-0---------0-3h5---|
|
| Gtr II
| PM                                                  PM
| E E Q          H              H                  E  E S S E
|-----------------------------|-------------------------------|
|-----------------------------|-------------------------------|
|-----------------------------|-------------------------------|
|-----------------------------|-------------------------------|
|-0---------------------------|-------------------------------|
|-0---------------------------|-----------------------0-3h5---|


    PM----|         PM    PM|
  E E S S S  S  +E  E S S S S
|------------------------------|
|------------------------------|
|------------------------------|
|------------------------------|
|-----------[6]-(6)------------|
|---0-3-0-0---------0-3h5-0-0--|
|
|   PM----|         PM    PM|
| E E S S S  S  +E  E S S S S
|------------------------------|
|------------------------------|
|------------------------------|
|------------------------------|
|-----------[6]-(6)------------|
|---0-3-0-0---------0-3h5-0-0--|


  PM----------------------------------------|         PM    PM|
  S S S S S S S S S S S S S S S S   E E S S S  S  +E  E S S S S
|---------------------------------|-----------------------------|
|---------------------------------|-----------------------------|
|---------------------------------|-----------------------------|
|---------------------------------|-----------------------------|
|---------------------------------|-----------[6]-(6)-----------|
|-5-5-5-5-6-6-6-6-8-8-8-8-7-7-7-7-|-0-0-3-0-0---------0-3h5-0-0-|
|
| PM----------------------------------------|         PM    PM|
| S S S S S S S S S S S S S S S S   E E S S S  S  +E  E S S S S
|---------------------------------|-----------------------------|
|---------------------------------|-----------------------------|
|---------------------------------|-----------------------------|
|---------------------------------|-----------------------------|
|-5-5-5-5-6-6-6-6-9-9-9-9-8-8-8-8-|-----------[6]-(6)-----------|
|---------------------------------|-0-0-3-0-0---------0-3h5-0-0-|


  PM----------|         PM          PM----|         PM    PM|
  S S S S S S S  S  +E  E S S E   E E S S S  S  +E  E S S S S
|-------------------------------|-----------------------------|
|-------------------------------|-----------------------------|
|-------------------------------|-----------------------------|
|-------------------------------|-----------------------------|
|---------------[6]-(6)---------|-----------[6]-(6)-----------|
|-0-0-0-0-3-0-0---------0-3h5---|---0-3-0-0---------0-3h5-0-0-|
|
| PM----------|         PM          PM----|         PM    PM|
| S S S S S S S  S  +E  E S S E   E E S S S  S  +E  E S S S S
|-------------------------------|-----------------------------|
|-------------------------------|-----------------------------|
|-------------------------------|-----------------------------|
|-------------------------------|-----------------------------|
|---------------[6]-(6)---------|-----------[6]-(6)-----------|
|-0-0-0-0-3-0-0---------0-3h5---|---0-3-0-0---------0-3h5-0-0-|


  PM--------------------------------------------------------------|
  S S S S S S S S S S S S S S S S   S S S S S S S S S S S S S S S S
|---------------------------------|---------------------------------|
|---------------------------------|---------------------------------|
|---------------------------------|---------------------------------|
|---------------------------------|---------------------------------|
|---------------------------------|---------------------------------|
|-5-5-5-5-6-6-6-6-8-8-8-8-7-7-7-7-|-5-5-5-5-6-6-6-6-8-8-8-8-7-7-7-7-|
|
| PM--------------------------------------------------------------|
| S S S S S S S S S S S S S S S S   S S S S S S S S S S S S S S S S
|---------------------------------|---------------------------------|
|---------------------------------|---------------------------------|
|---------------------------------|---------------------------------|
|---------------------------------|---------------------------------|
|-5-5-5-5-6-6-6-6-9-9-9-9-8-8-8-8-|-5-5-5-5-6-6-6-6-9-9-9-9-8-8-8-8-|
|---------------------------------|---------------------------------|


  PM--------------------------------------------------------------|
  S S S S S S S S S S S S S S S S   S S S S S S S S S S S S S S S S
|---------------------------------|---------------------------------|
|---------------------------------|---------------------------------|
|---------------------------------|---------------------------------|
|---------------------------------|---------------------------------|
|---------------------------------|---------------------------------|
|-5-5-5-5-6-6-6-6-8-8-8-8-7-7-7-7-|-5-5-5-5-6-6-6-6-8-8-8-8-7-7-7-7-|
|
| PM--------------------------------------------------------------|
| S S S S S S S S S S S S S S S S   S S S S S S S S S S S S S S S S
|---------------------------------|---------------------------------|
|---------------------------------|---------------------------------|
|---------------------------------|---------------------------------|
|---------------------------------|---------------------------------|
|-5-5-5-5-6-6-6-6-9-9-9-9-8-8-8-8-|-5-5-5-5-6-6-6-6-9-9-9-9-8-8-8-8-|
|---------------------------------|---------------------------------|


    PM|   PM|         PM|   PM|         PM|   PM|       PM------------|
  E E E E E E E E   E E E E E E E E   E E E E E E E E   E E E E E E E E
|-----------------|-----------------|-----------------|-----------------|
|-----------------|-----------------|-----------------|-----------------|
|-----------------|-----------------|-----------------|-----------------|
|-----------------|-----------------|-----------------|-----------------|
|-6-----5-----5s6-|-6-----5-----5s6-|-6-----5-----5s6-|-6-5-3-0-3-5-3-2-|
|-6-0-0-5-0-0-5s6-|-6-0-0-5-0-0-5s6-|-6-0-0-5-0-0-5s6-|-6-5-3-0-3-5-3-2-|
|
|   PM|   PM|         PM|   PM|         PM|   PM|       PM------------|
| E E E E E E E E   E E E E E E E E   E E E E E E E E   E E E E E E E E
|-----------------|-----------------|-----------------|-----------------|
|-----------------|-----------------|-----------------|-----------------|
|-----------------|-----------------|-----------------|-----------------|
|-----------------|-----------------|-----------------|-----------------|
|-6-----5-----5s6-|-6-----5-----5s6-|-6-----5-----5s6-|-6-5-3-0-3-5-3-2-|
|-6-0-0-5-0-0-5s6-|-6-0-0-5-0-0-5s6-|-6-0-0-5-0-0-5s6-|-6-5-3-0-3-5-3-2-|


  Gtrs I, II
    PM|   PM|         PM|   PM|         PM|   PM|       PM------------|
  E E E E E E E E   E E E E E E E E   E E E E E E E E   E E E E E E E E
|-----------------|-----------------|-----------------|-----------------|
|-----------------|-----------------|-----------------|-----------------|
|-----------------|-----------------|-----------------|-----------------|
|-----------------|-----------------|-----------------|-----------------|
|-6-----5-----5s6-|-6-----5-----5s6-|-6-----5-----5s6-|-6-5-3-0-3-5-3-2-|
|-6-0-0-5-0-0-5s6-|-6-0-0-5-0-0-5s6-|-6-0-0-5-0-0-5s6-|-6-5-3-0-3-5-3-2-|


 Verse
         PM|         PM|   PM|         PM|   PM|       PM------------|
  Q  E E E E E E   E E E E E E E E   E E E E E E E E   E E E E E E E E
|----------------|-----------------|-----------------|-----------------|
|----------------|-----------------|-----------------|-----------------|
|----------------|-----------------|-----------------|-----------------|
|----------------|-----------------|-----------------|-----------------|
|----6s5-----5s6-|-6-----5-----5s6-|-6-----5-----5s6-|-6-5-3-0-3-5-3-2-|
|----6s5-0-0-5s6-|-6-0-0-5-0-0-5s6-|-6-0-0-5-0-0-5s6-|-6-5-3-0-3-5-3-2-|


    PM|   PM|         PM|   PM|         PM|   PM|       PM------------|
  E E E E E E E E   E E E E E E E E   E E E E E E E E   E E E E E E E E
|-----------------|-----------------|-----------------|-----------------|
|-----------------|-----------------|-----------------|-----------------|
|-----------------|-----------------|-----------------|-----------------|
|-----------------|-----------------|-----------------|-----------------|
|-6-----5-----5s6-|-6-----5-----5s6-|-6-----5-----5s6-|-6-5-3-0-3-5-3-2-|
|-6-0-0-5-0-0-5s6-|-6-0-0-5-0-0-5s6-|-6-0-0-5-0-0-5s6-|-6-5-3-0-3-5-3-2-|


    PM|   PM|         PM|   PM|         PM|   PM|       PM------------|
  E E E E E E E E   E E E E E E E E   E E E E E E E E   E E E E E E E E
|-----------------|-----------------|-----------------|-----------------|
|-----------------|-----------------|-----------------|-----------------|
|-----------------|-----------------|-----------------|-----------------|
|-----------------|-----------------|-----------------|-----------------|
|-6-----5-----5s6-|-6-----5-----5s6-|-6-----5-----5s6-|-6-5-3-0-3-5-3-2-|
|-6-0-0-5-0-0-5s6-|-6-0-0-5-0-0-5s6-|-6-0-0-5-0-0-5s6-|-6-5-3-0-3-5-3-2-|


    PM|   PM|         PM|   PM|         PM|   PM|       PM------------|
  E E E E E E E E   E E E E E E E E   E E E E E E E E   E E E E E E E E
|-----------------|-----------------|-----------------|-----------------|
|-----------------|-----------------|-----------------|-----------------|
|-----------------|-----------------|-----------------|-----------------|
|-----------------|-----------------|-----------------|-----------------|
|-6-----5-----5s6-|-6-----5-----5s6-|-6-----5-----5s6-|-6-5-3-0-3-5-3-2-|
|-6-0-0-5-0-0-5s6-|-6-0-0-5-0-0-5s6-|-6-0-0-5-0-0-5s6-|-6-5-3-0-3-5-3-2-|


 Chorus
              PM          PM        PM
  E E E E E E E E   +E  E E E +E  E E E
|-----------------|---------------------|
|-----------------|---------------------|
|-----------------|---------------------|
|-----------------|---------3-(3)-3-3---|
|-6-6-6-6-6-6-6-1-|-(1)-1-1-1-(1)-1-1-5-|
|-6-6-6-6-6-6-6-1-|-(1)-1-1-----------5-|


      PM--------|           PM        PM
  +E  E E E E E E E   +E  E E E +E  E E E
|-------------------|---------------------|
|-------------------|---------------------|
|-------------------|---------------------|
|-----------------5-|-(5)-5-5-8-(8)-8-8---|
|-(5)-5-5-5-5-5-5-3-|-(3)-3-3-6-(6)-6-6-6-|
|-(5)-5-5-5-5-5-5---|-------------------6-|


                PM          PM        PM        PM--------------|        PM  PM
  +E  E E E E E E E   +E  E E E +E  E E E   +E  E E E E E E E   E E Q  E E E E
|-------------------|---------------------|-------------------|----------------|
|-------------------|---------------------|-------------------|----------------|
|-------------------|---------------------|-------------------|----------------|
|-------------------|---------3-(3)-3-3---|-------------------|----------------|
|-(6)-6-6-6-6-6-6-1-|-(1)-1-1-1-(1)-1-1-5-|-(5)-5-5-5-5-5-5-5-|-5----------5---|
|-(6)-6-6-6-6-6-6-1-|-(1)-1-1-----------5-|-(5)-5-5-5-5-5-5-5-|-5--------0-5-0-|


 Pre-Verse
    PM|   PM|         PM|   PM|         PM|   PM|       PM------------|
  E E E E E E E E   E E E E E E E E   E E E E E E E E   E E E E E E E E





Calificar esta versión:
Aviso: Este fichero es trabajo propio de su transcriptor y representa su interpretación personal de la canción. El material contenido en esta página es para exclusivo uso privado, por lo que se prohibe su reproducción o retransmisión, así como su uso para fines comerciales.
Más versiones de Psychosocial, Slipknot
Psychosocial
tablatura
Psychosocial (ver 2)
tablatura
Psychosocial (ver 3)
tablatura
Psychosocial (ver 4)
tablatura
Psychosocial (ver 5)
tablatura
Psychosocial (ver 6)
tablatura
Descubre más canciones de Slipknot