Left Behind, Slipknot (tablatura) (ver 2)

Autor: MA666OT | 35761 visualizaciones



||----------------------------|-------------------|
||o-0-(0)-(0)-2-(2)-(2)-3-(3)-|-(3)-2-----2-3-2---|
||--2--2---2--2--2---2--2-----|-----2-2-2-2-2-2-2-|
||--0--0---0--0--0---0--0--0--|--0--0-0-0-0-0-0-0-|
||o---------------------------|-----------------0-|
||----------------------------|-------------------|


  D5/A
  E E E E E E E E   E E E E E E E E
|-----------------|-------------------||
|-----------------|------------------o||
|-2-2-2-2---2---2-|-------------------||
|-0-0-0-0-0-0-0-0-|-0-0-0-0-0-0-0-0---||
|-0-0-0-0-0-0-0-0-|-0---0---0---0----o||
|-----------------|-------------------||


   Verse
    $
    Bm7/D     A/D       D5                A/D5A/D
    E  E   E  E  E   E  E  E     E  E E E E E E E
||----------------------------|-------------------|
||o-0-(0)-(0)-2-(2)-(2)-------|-----------2-3-2---|
||--2--2---2--2--2---2--2-(2)-|-(2)-2-2-2-2-2-2-2-|
||--0--0---0--0--0---0--0--0--|--0--0-0-0-0-0-0-0-|
||o---------------------------|-----------------0-|
||----------------------------|-------------------|


  D5/A
  E E E E E E E E   E E E E E E E E   4x
|-----------------|-------------------||
|-----------------|------------------o||
|-2-2-2-2---2---2-|-------------------||
|-0-0-0-0-0-0-0-0-|-0-0-0-0-0-0-0-0---||
|-0-0-0-0-0-0-0-0-|-0---0---0---0----o||
|-----------------|-------------------||


  C5                                                   D5
 3/4
                                                                  PM|
  Q   E Q  E   Q  E E E E   E Q  E E E   Q    E Q  E   E  +E  E E E E







|------------|------------|------------|-------------|----------------|
|------------|------------|------------|-------------|----------------|
|-5-----5----|-5----5---5-|---5--5-5---|-5------5--5-|-7--(7)---7-----|
|-5---5-5--5-|-5--5-5-5-5-|-5-5--5-5-5-|-5----5-5--5-|-7--(7)-7-7-7-7-|
|-3---3-3--3-|-3--3-3-3-3-|-3-3--3-3-3-|-3----3-3--3-|-5--(5)-5-5-5-5-|
|------------|------------|------------|-------------|--------0-------|
|
| Gtr II
| H.           Q  H         H      Q     H.            H.
|------------|------------|------------|-------------|----------------|
|------------|------------|------------|-0-----------|----------------|
|------------|------------|------------|-5b7---------|-7--------------|
|------------|------------|--------5---|-5b7---------|-7--------------|
|------------|------------|--------3---|-3b5---------|-5--------------|
|------------|------------|------------|-------------|----------------|


                                             D.S.
  D5           D5          D5           D5
         PM|      PM|          PM|      PM|
  Q  E E E E   Q  E E Q    E E E E Q    E E Q  E E
|------------|-----------|------------|------------|
|------------|-----------|------------|------------|
|-7----7-----|-7------7--|---7-----7--|-----7--7-7-|
|-7--7-7-7-7-|-7--7-7-7--|-7-7-7-7-7--|-7-7-7--7-7-|
|-5--5-5-5-5-|-5--5-5-5--|-5-5-5-5-5--|-5-5-5--5-5-|
|-0--0-------|-0--0---0--|-0-------0--|-0---0------|


   Chorus
    Fsus4/Bb     Am7/C           Dsus2           Csus4/A
   3/4
    Q  E E E E    Q    E E E E    Q    E E E E    Q    E E E E  3x
||--1----------|-(5)-----------|--0------------|-(3)------------||
||o-1----------|--5------------|--3------3---3-|--6------6---6-o||
||--3----3---3-|--5------5---5-|--2----2-2-2-2-|--5----5-5-5-5--||
||--3--3-3-3-3-|--5----5-5-5-5-|--0----0---0---|--3----3---3----||
||o-1--1---1---|--3----3---3---|--0------------|--0------------o||
||-------------|---------------|--0------------|----------------||
|
|   Gtr II
|   Q  E E E E   +E  E E E E E   +E  E E E E E   +E  E E E E E  3x
||-----1-0-1-0-|-(0)---1-0-1-0-|-(0)---1-0-1-0-|-(0)---1-0-1-0--||
||o------------|---------------|---------------|---------------o||
||-------------|---------------|---------------|----------------||
||-------------|---------------|---------------|----------------||
||o------------|---------------|---------------|---------------o||
||-------------|---------------|---------------|----------------||


  Fsus4/Bb     Am7/C           Dsus2           D5 E5 F5
  Q  E E E E    Q    E E E E    Q    E E E E   Q  Q  Q
|-1----------|-(5)-----------|--0------------|----------|
|-1----------|--5------------|--3------3---3-|----------|
|-3----3---3-|--5------5---5-|--2----2-2-2-2-|-2--4--5--|
|-3--3-3-3-3-|--5----5-5-5-5-|--0----0---0---|-0--2--3--|
|-1--1---1---|--3----3---3---|--0------------|----------|
|------------|---------------|--0------------|----------|
|
| Q  E E E E   +E  E E E E E   +E  E E E E E   Q  Q  Q
|----1-0-1-0-|-(0)---1-0-1-0-|-(0)---1-0-1-0-|-1-----0--|
|------------|---------------|---------------|----3-----|
|------------|---------------|---------------|----------|
|------------|---------------|---------------|----------|
|------------|---------------|---------------|----------|
|------------|---------------|---------------|----------|


 Interlude
  Fsus4/Bb     Am7/C          Am           FsuA5/Bb
  Q  E E E E    Q   E E E E   Q  E E E E   Q  Q  Q





|-1----------|-(5)----------|-0----------|-1--------|
|-1----------|--5-----------|-1----------|-1--------|
|-3----3---3-|--5-----5---5-|-2----2---2-|-3--------|
|-3--3-3-3-3-|--5---5-5-5-5-|-2--2-2-2-2-|-3--2--2--|
|-1--1---1---|--3---3---3---|-0--0---0---|-1--0--0--|
|------------|--------------|------------|----------|


  Dsus2        Dsus2
  Q  E E E E   Q  E E E E   Q  E E E E   Q  E E E E   Q  E E E E
|-0----------|-0----------|-0----------|-0----------|-0-----------|
|-3----3---3-|-3----3---3-|-3----3---3-|-3----3---3-|-3----3---3--|
|-2--2-2-2-2-|-2--2-2-2-2-|-2--2-2-2-2-|-2--2-2-2-2-|-2--2-2-2-2--|
|-0--0---0---|-0--0---0---|-0--0---0---|-0--0---0---|-0--0---0----|
|-0----------|------------|------------|------------|-------------|
|-0----------|------------|------------|------------|-------------|


  Dsus2
  Q  E E E E   Q  E E E E   Q  E E E E   Q  E E E E   Q  E E E E
|-0----------|-0----------|-0----------|-0----------|-0-----------|
|-3----3---3-|-3----3---3-|-3----3---3-|-3----3---3-|-3----3---3--|
|-2--2-2-2-2-|-2--2-2-2-2-|-2--2-2-2-2-|-2--2-2-2-2-|-2--2-2-2-2--|
|-0--0---0---|-0--0---0---|-0--0---0---|-0--0---0---|-0--0---0----|
|------------|-0----------|------------|-0----------|-0-----------|
|------------|-0----------|------------|-0----------|-0-----------|


   Chorus 2
    Fsus4/Bb     Am7/C           Dsus2           Csus4/A
    Q  E E E E    Q    E E E E    Q    E E E E    Q    E E E E   3x
||--1----------|-(5)-----------|--0------------|-(3)-------------||
||o-1----------|--5------------|--3------3---3-|--6------6---6--o||
||--3----3---3-|--5------5---5-|--2----2-2-2-2-|--5----5-5-5-5---||
||--3--3-3-3-3-|--5----5-5-5-5-|--0----0---0---|--3----3---3-----||
||o-1--1---1---|--3----3---3---|--0------------|--0-------------o||
||-------------|---------------|--0------------|-----------------||
|
|   Gtr II
|   Q  E E E E   +E  E E E E E   +E  E E E E E   +E  E E E E E   3x
||-----1-0-1-0-|-(0)---1-0-1-0-|-(0)---1-0-1-0-|-(0)---1-0-1-0---||
||o------------|---------------|---------------|----------------o||
||-------------|---------------|---------------|-----------------||
||-------------|---------------|---------------|-----------------||
||o------------|---------------|---------------|----------------o||
||-------------|---------------|---------------|-----------------||


  Fsus4/Bb     Am7/C
  Q  E E E E    Q    E E E E
|-1----------|-(5)-----------|
|-1----------|--5------------|
|-3----3---3-|--5------5---5-|
|-3--3-3-3-3-|--5----5-5-5-5-|
|-1--1---1---|--3----3---3---|
|------------|---------------|
|
| Q  E E E E   +E  E E E E E
|----1-0-1-0-|-(0)---1-0-1-0-|
|------------|---------------|
|------------|---------------|
|------------|---------------|
|------------|---------------|
|------------|---------------|


 Verse 2
  Bm7/D      A/D       D5          A/D   A/D5A/D
 4/4
  E   E   E  E  E   E  E  E     E  E E E E E E E






|----------------------------|-------------------|
|-0--(0)-(0)-2-(2)-(2)-3-(3)-|-(3)-2-----2-3-2---|
|-2---2---2--2--2---2--2-----|-----2-2-2-2-2-2-2-|
|-0---0---0--0--0---0--0--0--|--0--0-0-0-0-0-0-0-|
|----------------------------|-----------------0-|
|----------------------------|-------------------|
|
| Q.         H           +E     W
|-0----------0-----------(0)-|-------------------|
|-3----------3-----------(3)-|-------------------|
|-2----------2-----------(2)-|-------------------|
|-0----------0-----------(0)-|-------------------|
|-0--------------------------|-------------------|
|-0--------------------------|-------------------|


  D5/A
  E E E E E E E E   E E E E E E E E
|-----------------|-----------------|
|-----------------|-----------------|
|-2-2-2-2---2---2-|-----------------|
|-0-0-0-0-0-0-0-0-|-0-0-0-0-0-0-0-0-|
|-0-0-0-0-0-0-0-0-|-0---0---0---0---|
|-----------------|-----------------|
|
| W                 W
|-----------------|-----------------|
|-----------------|-----------------|
|-----------------|-----------------|
|-----------------|-----------------|
|-----------------|-----------------|
|-----------------|-----------------|


    Bm7/D     A/D       D5      A/D   A/D5A/D
    E  E   E  E  E   E  E E   E E E E E E E E
||--------------------------|-----------------|
||o-0-(0)-(0)-2-(2)-(2)-3---|---2-----2-3-2---|
||--2--2---2--2--2---2--2---|---2-2-2-2-2-2-2-|
||--0--0---0--0--0---0--0-0-|-0-0-0-0-0-0-0-0-|
||o-------------------------|---------------0-|
||--------------------------|-----------------|


  D5/A
  E E E E E E E E   E E E E E E E E   5x
|-----------------|-------------------||
|-----------------|------------------o||
|-2-2-2-2---2---2-|-------------------||
|-0-0-0-0-0-0-0-0-|-0-0-0-0-0-0-0-0---||
|-0-0-0-0-0-0-0-0-|-0---0---0---0----o||
|-----------------|-------------------||


 Outro
  N.C.
  Gtr III
   Q.    Q.    Q      +E    H..          +W             +W
|------------------|------------------|--------------|----------*|
|------------------|------------------|--------------|----------*|
|-------------<5>--|-(<5>)------------|--------------|----------*|
|-------<5>--------|-------<9>--------|-(<9>)--------|-(<9>)----*|
|-<9>--------------|------------------|--------------|----------*|
|------------------|------------------|--------------|----------*|





Calificar esta versión:
Aviso: Este fichero es trabajo propio de su transcriptor y representa su interpretación personal de la canción. El material contenido en esta página es para exclusivo uso privado, por lo que se prohibe su reproducción o retransmisión, así como su uso para fines comerciales.
Más versiones de Left Behind, Slipknot
Left Behind
tablatura
Left Behind (ver 2)
tablatura
Left Behind (ver 3)
tablatura
Descubre más canciones de Slipknot