Duality, Slipknot (tablatura) (ver 2)

Autor: nyless | 38933 visualizaciones



duality
Intro x4 (the first 2 times are real soft, last 2 are hard)
|---------------------------------------|
|---------------------------------------|
|---------------------------------------|
|---------------------------------------|
|---------------------------------------|
|--000000000000000033333333/6611111111-|

Pre-verse x2
|---------------------------------------------------------------------|
|---------------------------------------------------------------------|
|-----------------------------3*b-------------------------------------|
|--0-0-0--0-0--0-0-0--0-0-1-3-------0-0-0--0-0--0-0-0--0-0-1-3--3*b---|
|--0-0-0--0-0--0-0-0--0-0-1-3-------0-0-0--0-0--0-0-0--0-0-1-3--------|
|--0-0-0--0-0--0-0-0--0-0-1-3-------0-0-0--0-0--0-0-0--0-0-1-3--------|
pm.........................         ........................

Verse(tremolo pick whole verse)x8
|------------------------------------------|
|------------------------------------------|
|------------------------------------------|
|------------------------------------------|
|------------------------------------------|
|--77777101010107777733333336666111111111--|
pm.........................................

Pre-chorus x1
|---------------------------------------|
|---------------------------------------|
|---------------------------------------|
|--3-3-33--3-3-3-33--3-3-3-33--3-3-3----|
|--3-3-33--3-3-3-33--3-3-3-33--3-3-3-3*-|
|--3-3-33--3-3-3-33--3-3-3-33--3-3-3----|
pm..................................
I push my fingers in to my...

Chorus(hold note is quick)x2
|-------------------------------------------|
|-------------------------------------------|
|-------------------------------------------|
|--0~000000000000000-3~333333-666-11111111--|
|--0~000000000000000-3~333333-666-11111111--|
|--0~000000000000000-3~333333-666-11111111--|
EYES....

Pre-verse 2 x1 tremolo pick
|----------------------------------------------------------------------|
|----------------------------------------------------------------------|
|----------------------------------------------------------------------|
|-------------------------------------------------------------3-5-1-0--|
|-------------------------------------------------------------3-5-1-0--|
|--777777101010107777733333336661111111111-777771010101077777-3-5-1-0--|
pm...........................................................
verse x4

Pre-chorus x1

Chorus x4

Chorus Guitar 2 on 3rd and 4th times
|----------------------------|
|----------------------------|
|----------------------------|
|---5-5--8-8--12-12-13/12b---|
|----------------------------|
|----------------------------|


Bridge x4
|---------------------------------------------------------------------|
|---------------------------------------------------------------------|
|---------------------------------------------------------------------|
|------------------------------3*b------------------------------------|
|--0-0-0--0-0--0-0-0--0-0-1-3-------0-0-0--0-0--0-0-0--0-0-1-3--3*b---|
|--0-0-0--0-0--0-0-0--0-0-1-3-------0-0-0--0-0--0-0-0--0-0-1-3--------|
|--0-0-0--0-0--0-0-0--0-0-1-3-------0-0-0--0-0--0-0-0--0-0-1-3--------|

Pre-chorus x1

Fill 1 (add this on the end of the prechorus)
|---------------------------------------|
|---------------------------------------|
|---------------------------------------|
|---------------------------------------|
|---------------------------------------|
|--77777101010107777733333336661111111--|

Chorus x4

Outro light palm muting
|---------------------------------------------------------------|
|---------------------------------------------------------------|
|------------------------------3*b------------------------------|
|--0-0-0--0000--0-0-0--0010--3------0-0-0--0000--0-0-0--0-0-1-0-|
|--0-0-0--0000--0-0-0--0010--3------0-0-0--0000--0-0-0--0-0-1-0-|
|--0-0-0--0000--0-0-0--0010--3------0-0-0--0000--0-0-0--0-0-1-0-|
pm..............................................................

with heavy palm muting
|---------------------------------------------------------------------------|
|---------------------------------------------------------------------------|
|------------------------------------------3*b------------------------------|
|-0-0-0-0---0-0-0--0000--0-0-0--0-0-1-0--3------0-0-0--0000--0-0-0--0-0-1-0-|
|-0-0-0-0---0-0-0--0000--0-0-0--0-0-1-0--3------0-0-0--0000--0-0-0--0-0-1-0-|
|-0-0-0-0---0-0-0--0000--0-0-0--0-0-1-0--3------0-0-0--0000--0-0-0--0-0-1-0-|
.......................................         ...........................

|-------|
|-------|
|-------|
|-3-3*b-
|-3-----|
|-3-----|

now with light palm muting again
|------------------------------------------------------------
|-------------------------------------------------------------------------|
|---------------------------------3*b-------------------------------------|
|--0-0-0--0000--0-0-0--0-0-1-0--3------0-0-0--0000--0-0-0--0-0-1-0-3-3*b--|
|--0-0-0--0000--0-0-0--0-0-1-0--3------0-0-0--0000--0-0-0--0-0-1-0-3------|
|--0-0-0--0000--0-0-0--0-0-1-0--3------0-0-0--0000--0-0-0--0-0-1-0-3------|
..............................         ...........................







Calificar esta versión:
Aviso: Este fichero es trabajo propio de su transcriptor y representa su interpretación personal de la canción. El material contenido en esta página es para exclusivo uso privado, por lo que se prohibe su reproducción o retransmisión, así como su uso para fines comerciales.
Más versiones de Duality, Slipknot
Duality
acordes
Duality
tablatura
Duality (ver 2)
tablatura
Duality (ver 3)
tablatura
Descubre más canciones de Slipknot