Godfather Theme, Slash (tablatura) (ver 2)

Autor: hilnofder | 23524 visualizaciones



ESTE ES SOLO EL INTRO DISCULPEN LUEGO LES PONGO LO DEMAS BAMBA::)

e|------------------------------------------------------------|
b|-15~~~-14-15-16-15-15-------15~~~-14-15-16-15-15------------|
g|--------------------15~~~--------------------------14~~~----|
D|------------------------------------------------------------|
A|------------------------------------------------------------|
E|------------------------------------------------------------|

e|------------------------------------------------------------|
b|-15-14-15-18^18--15^15--17^17---------14^14-----------------|
g|-------------------------------15^15----------14------------|
D|------------------------------------------------------------|
A|------------------------------------------------------------|
E|------------------------------------------------------------|
AQUI EN ESTA PARTE POR EJEMPLO 15^15 SE ELEVA LA CUERDA PERO CON UN SOLO PUNTEO DE BAJA ANTES DE QUE SE ACABE EL SONIDO PARA QUE DE DOS TONOS CON UN  SOLO PUNTEO HAGANLO ASI Y SE ESUCHA CHIDO.

e|------10---13--12--10--13--10--12--10-----------------------|
b|----------------------------------------11--13--10~~~~------|
g|--10--------------------------------------------------------|
D|------------------------------------------------------------|
A|------------------------------------------------------------|
E|------------------------------------------------------------|

e|------10---13--12--10--13--10--12--10-----------------------|
b|-----------------------------------------/11--10--8~~~------|
g|--10--------------------------------------------------------|
D|------------------------------------------------------------|
A|------------------------------------------------------------|
E|------------------------------------------------------------|

e|-----6--10--10^~~~-------6--9--9^~~~------------------------|
b|--8------------------8--------------------------------------|
g|------------------------------------------------------------|
D|------------------------------------------------------------|
A|------------------------------------------------------------|
E|------------------------------------------------------------|

e|----6--5--6--5--8^--5--6--5~~-------------------------------|
b|-------------------------------/10--5-6~--------------------|
g|------------------------------------------------------------|
D|------------------------------------------------------------|
A|------------------------------------------------------------|
E|------------------------------------------------------------|

ESTO ES TODO OJALA LES SIRVA DEJEN SUS COMENTARIOS PORFA ::))





Calificar esta versión:
Aviso: Este fichero es trabajo propio de su transcriptor y representa su interpretación personal de la canción. El material contenido en esta página es para exclusivo uso privado, por lo que se prohibe su reproducción o retransmisión, así como su uso para fines comerciales.
Más versiones de Godfather Theme, Slash
Godfather Theme
tablatura
Godfather Theme (ver 2)
tablatura
Descubre más canciones de Slash