El Padrino, Slash (tablatura) (ver 3)

Autor: epiphone | 43073 visualizaciones



EL PADRINO
hay muchas versiones subidas y ninguna me ha sonado bien asi que la he sacado solo modificando algunos fallos.

1:--------------------------------
2:--14--13--14--15--14--13--------
3:--------------------------13----

1:--------------------------------
2:--14--13--14--15--14------------
3:----------------------13--------

1:------9--12--11--9--12--9--11--9----------
2:--9-------------------------------10--12--9
3:------------------------------------------

1:----9--12--11--9--12--9--11--9---------------8--11--------8--9
2:--9----------------------------9--8--7--7--10------7--10
3:--------------------------------------------------------------

la siguiente parte no la encuentro en ningun lao nisiquiera parecida si la encuentran ponganmelo en el tablón





Calificar esta versión:
Aviso: Este fichero es trabajo propio de su transcriptor y representa su interpretación personal de la canción. El material contenido en esta página es para exclusivo uso privado, por lo que se prohibe su reproducción o retransmisión, así como su uso para fines comerciales.
Más versiones de El Padrino, Slash
El Padrino
tablatura
El Padrino (ver 2)
tablatura
El Padrino (ver 3)
tablatura
El Padrino (ver 4)
tablatura
Descubre más canciones de Slash