Memorias De Un Perro Mutante, Skay Beilinson (tablatura)

Autor: Anónimo | 44270 visualizaciones



Intro: Riff 1 (solo la guitarra)
Riff 2

SOLm
Un cielo cubierto de ceniza y alquitrán
Llora en esta guerra silenciosa.

Riff 3

Hola! ¿hay alguien ahí?
Hay acaso algún sobreviviente.

Riff 3

Ese microchip, anónimo y fatal
Solo sos un numero en su dieta.

Riff 3

El mundo se esta poniendo raro
Hubo olor a tigre esa mañana en la ciudad.

        MIm
3-------9--------
4-9-8-9---9-8-9--
5---------------7  x2 (con efecto de palanca)

Solm (Riff 2)

Nada por aquí, mucho por allá
Un truco de magia bien pensado

Riff 3

El caballo negro de la noche
Corre al galope en la tormenta igual que vos.

(Final)
Riff 3 x 4



Riff 1:
1-3-3-3-1-1-3-6-3-1-3-3-3------------
2-3-3-3-1-1-3-6-3-1-3-3-3-3-3-5-3----
3-------------------------3-3-5-3----
4---------------------------------5-5
5------------------------------------
6------------------------------------

1-3-3-3-1-1-3-6-------------------------
2-3-3-3-1-1-3-6-5-3---------------------
3---------------5-3----------3-3-5-3----
4-------------------5--5-5-5-3-3-5-3-5-5
5----------------------5-5-5---------5-5
6---------------------------------------

Riff 2:
1----------------------------------------
2----------------------------------------
3-------------3-------------------3-5-3--
4-5-5-5-3-3-5---5-3---5-5-5-3-3-5-------5
5-------------------5--------------------
6----------------------------------------

1--------------------------------------
2--------------------------------------
3-------------3-------------3-3-5-3----
4-5-5-5-3-3-5---5-3---5-5-5-3-3-5-3-5-5
5-------------------5-5-5-5---------5-5
6--------------------------------------


Riff 3:

1---------------------------   1----------------------
2-8---------8---------------   2-8-----------3-5-3----
3---7-8-6-7---7-8-6-7-------   3---7-8-6-7---3-5-3----
4---------------------8-7---   4-----------5-------5-5
5-------------------------10   5----------------------
6---------------------------   6----------------------





Calificar esta versión:
Aviso: Este fichero es trabajo propio de su transcriptor y representa su interpretación personal de la canción. El material contenido en esta página es para exclusivo uso privado, por lo que se prohibe su reproducción o retransmisión, así como su uso para fines comerciales.
Más versiones de Memorias De Un Perro Mutante, Skay Beilinson
Memorias De Un Perro Mutante
acordes
Memorias De Un Perro Mutante
tablatura
Descubre más canciones de Skay Beilinson