La Grieta, Skay Beilinson (tablatura) (ver 2)

Autor: Anónimo | 25657 visualizaciones

Riff
----
e|----------------------------------------------------------|
B|--[6]-8-10----6-8-1010~----6-8-10-11-10-8-10-8-6-5--6-5~--|
G|--[7]-9-10----7-9-1010~----7-9-10-12-10-9-10-9-7-6--7-6~--|
D|----------------------------------------------------------|
A|----------------------------------------------------------|
E|----------------------------------------------------------|
[ ] significa q en algunas partes de la canción en vez de tocar
    esto al mismo tiempo hace como una bajada o arpegio de esa nota.


..despues cuando dice (buscala porque se repite en casi toda la cancion) : 

...Sabes..............la grieta y vos.......y vos........
1|------------------------------------------|---------------------|
2|------6h5-6~-----------6h5-3-2-3~---------|--------6-------10~--|
3|------------------------------------------|------5---e7----10~--|
4|------------------------------------------|--5p7----------------|
 
SOLO
----
1|---------------------------------------------------->
2|--------6------8-8--10-10--e10~----e8p6-8d10-6------>
3|------5---e7---9-9--10-10--e10~----------------77~-->
4|--5h7----------------------------------------------->

1|---------------------------------5-55---------------------------------->
2|--666-6--333--111-0~--33---------6-66----------------6-6--8-10-11-10~-->
3|--777-7--222--000-1~--22-----------------7-6~----5d7-7-7--9-10-12-10~-->
4|-----------------------------------------8-7~-------------------------->
5|-----------------------------3d5--------------------------------------->
 
1|--e10e10--88--55----------------------------------------------->
2|------------------6-6--3-1--6~--6-6p5--6-6p5--5h4--5-5d8-6~---->
3|---------------------------------------------------6-6d9-7~---->

1|--5~------------------------------------------------------------5~-->
2|--6~--6-8-10----6-6p5--6-6p5----5h4--2-3d5-3~-------------------6~-->
3|------7-9-10----------------------------------------------------7~-->
4|-----------------------------------------------5p3--------------7~-->
5|---------------------------------------------------55~----d5----5~-->
6|----------------------------------------------------------------5~-->

1|----------------------------5~--|
2|--6-8-6h8-5-6h5------------6~---|
3|----------------6---------7~----|
4|------------------7------7~-----|
5|------------------------5~------|
6|-----------------------5~-------|


Dedicada al tarado q dijo q el Solo de esta canción era facil. 
(sacalo con criolla si podes como lo saque yo)
Esta version es perfecta y esta completa.
Calificar esta versión:
Aviso: Este fichero es trabajo propio de su transcriptor y representa su interpretación personal de la canción. El material contenido en esta página es para exclusivo uso privado, por lo que se prohibe su reproducción o retransmisión, así como su uso para fines comerciales.
Más versiones de La Grieta, Skay Beilinson
La Grieta
acordes
La Grieta
tablatura
La Grieta (ver 2)
tablatura
Descubre más canciones de Skay Beilinson