Flores Secas, Skay Beilinson (tablatura)

Autor: Anónimo | 20776 visualizaciones

Intro:

e|-7-7-7-7-7-7-4-4-5-4-7-7--7-|--|
b|----------------------------|--|
g|----------------------------|x2|
d|----------------------------|--|
a|----------------------------|--|
E|----------------------------|--|


Entra Skay:


Guitarra 1:

  E5                           A5 E5                        A5
e|-------------------------------|-------------------------------|--|
b|-------------------------------|-------------------------------|--|
g|------------------------------2|--------------------------2-2-2|x2|
d|2-2-2-2-2-2-2-2-2-2-2-2-2-2-2-2|2-2-2-2-2-2-2-2-2-2-2-2-2-2-2-2|--|
a|2-2-2-2-2-2-2-2-2-2-2-2-2-2-2-0|2-2-2-2-2-2-2-2-2-2-2-2-2-0-0-0|--|
E|0-0-0-0-0-0-0-0-0-0-0-0-0-0-0--|0-0-0-0-0-0-0-0-0-0-0-0-0------|--|
PM.............................   .........................

Guitarra 2:

e|-7-7-7-7-7-7-4-4-5-4-7-7--7----|-7-7-7-7-7-7-4-4-5-4-7-7--7----|--|
b|-------------------------------|-------------------------------|--|
g|-------------------------------|-------------------------------|x2|
d|-------------------------------|-------------------------------|--|
a|-------------------------------|-------------------------------|--|
E|-------------------------------|-------------------------------|--|


Estrofa 1:


Riff E5:
e|-------------------------------|--|
b|-------------------------------|--|
g|--------------------------2-2-2|x4|
d|2-2-2-2-2-2-2-2-2-2-2-2-2-2-2-2|--|
a|2-2-2-2-2-2-2-2-2-2-2-2-2-0-0-0|--|
E|0-0-0-0-0-0-0-0-0-0-0-0-0------|--|
PM.........................

Riff A5:
e|-------------------------------|--|
b|--------------------------2-2-2|--|
g|2-2-2-2-2-2-2-2-2-2-2-2-2-2-2-2|x4|
d|2-2-2-2-2-2-2-2-2-2-2-2-2-2-2-2|--|
a|0-0-0-0-0-0-0-0-0-0-0-0-0-0-0-0|--|
E|-------------------------------|--|
PM.........................

(Riff E5)
Ayy callejon ayy viejo callejon
(Riff A5)                           (Riff E5)
Nunca fuiste calle ancha, avenida o boulevard
(Riff A5)
no tuviste las vidrieras
                    (Riff E5)
ni las luces de neon


Estrofa 2:


D5          A5            (Riff E5)
En tus muros crecen flores callejon
(Riff E5)
Vos sos para mi perfume de azares
D5 A5 (Riff E5)
Vos  callejon
(Riff E5)
vos sos como un sol brillando en mi cielo
D5  A5   (Riff E5)
estas callejon


Solo 1:


e|-------------------------------|-------------------------------|
b|-------------------------------|-------------------------------|
g|9-9-8-8-6--6-6--6-----------9--|9-9-8-8-6--6-6--6-----------9--|
d|--------------9--9--7p6h7/9----|--------------9--9--7p6h7/9----|
a|-------------------------------|-------------------------------|
E|-------------------------------|-------------------------------|

e|--------------------------------------------|
b|---------------------------------17-17-17-17|
g|9-9-8-8-6-6/8-8-11-11/13-14/16-16-----------|
d|--------------------------------------------|
a|--------------------------------------------|
E|--------------------------------------------|

e|------------------------------------------------------------|
b|15-15-15-14--------------17-17-15-17-15-15-15-14-14-14-17---|
g|------------16-14-13-14-----------------------------------16|
d|-----------------------14-----------------------------------|
a|------------------------------------------------------------|
E|------------------------------------------------------------|

Solo 2 (Tremendo este!):

e|--------------------------------------------|
b|--------------------------------------------|
g|(6b7b6)----------------(6b7b6)--------------|
d|--------9-7-6-7-6/9------------9-7-6-7/9-6~-|
a|-------------------7~-----------------------|

E|------------------------------------------------------------|
e|------------------------------------------------------------|
b|------------------------------------------------------------|
g|----------4-6/7--7-6-7-7/9-6--------------------------------|
d|-5-5-5-5---------------------7~--5-5-5-5-4------------------|
a|-------------------------------------------7-5-5-5-5-4-2-0--|
E|------------------------------------------------------------|



Puente:

e|------------|------------|------------|------------|------------|
b|------------|------------|------------|------------|------------|
g|------------|------------|------------|------------|------------|
d|-----A5-----|-----E5-----|-----D5-----|-----A5-----|-----E5-----|
a|------------|------------|------------|------------|------------|
E|------------|------------|------------|------------|------------|


Estrofa 3:

A5                                     E5      A5 E5
Tus veredas de suburbio son de tierra callejon
A5                                      E5       A5 E5
Por las noches sos testigo de mis sueños callejon
D5           A5            E5      A5 E5
En tus muros crecen flores callejon


D5 A5 E5


Se me descoloco un poco en el solo, cosas de tabulación
lo dejo asi para la gente que quiera imprimir, sale mejor

Saludos!
Calificar esta versión:
Aviso: Este fichero es trabajo propio de su transcriptor y representa su interpretación personal de la canción. El material contenido en esta página es para exclusivo uso privado, por lo que se prohibe su reproducción o retransmisión, así como su uso para fines comerciales.
Más versiones de Flores Secas, Skay Beilinson
Flores Secas
acordes
Flores Secas
tablatura
Descubre más canciones de Skay Beilinson