El Gourmet Del Infierno, Skay Beilinson (tablatura) (ver 3)

Autor: Anónimo | 22617 visualizaciones

  INTRO

RIFF A
e|---------------------------------|
B|---------------------------------|
G|---------------------------------|   X 4
D|---------------------------------|
A|-----------2-5-2----------1-2~~--|
E|--0-0-3-5--------0-0-3-5---------|

VERSO 1

   MI
Muy buenas noches bienvenidos al show
Hoy les prometo un poco de felicidad,  ja  ja  ja.

RIFF A X 2

VERSO 2

   MI
Pasen y vean el rostro del diablo
Detrás de la puerta aguarda con satisfacción.

RIFF A X 2

ESTRIBILLO A:

SI                 DO
Repite como un charlatán
SI                 DO
Lo mismo que dijo ayer
SI                    DO
Siempre promete que va a revelar
SI                           DO
La gloria de la miseria y la oscuridad.

RIFF A X 2

VERSO 3 RIFF B X 2

Deten sus miedos atrás
Pasen y vean de cerca la bestialidad.


 RIFF B
e|---------------------------------|
B|---------------------------------|
G|---------------------------------|
D|-----------2-5-2---------1-2~~---|
A|--0-0-3-5--------0-0-3-5---------|
E|---------------------------------|


RIFF A X 2


ESTRIBILLO B:

SI                   DO
Como una araña en su red
SI                 DO
Espera que caigas allí
SI                           DO
De las miserias de todo un gourmet
SI                                DO
Sabe mentir y sobre todo sabe ser cruel.


RIFF A X 2


PUENTE:

e|------------------------------|-----------------------------|
B|--13b-13b-11-13-13b-----------|--13b-13b-11-13-11-----------|
G|------------------------------|-----------------------------|   X 4
D|------------------------------|-----------------------------|
A|--------------------------2---|-------------------------2---|
E|---------------------3-5----0-|---------------------3-5---0-|

RIFF
e|----------------------------------|-----------------------------|
B|----------------------------------|-----------------------------|
G|----------------------------------|-----------------------------|
D|-----------2-5-2----------1-2~~---|-----------2-5-2-------------|
A|--0-0-3-5--------0-0-3-5----------|--0-0-3-5---------0---2------|
E|----------------------------------|--------------------3----0---|


PUENTE X 1


ESTRIBILLO A:

SI                  DO
Repite como un charlatán
SI                DO
Lo mismo que dijo ayer
SI                       DO
Siempre promete que va a revelar
SI                           DO
La gloria de la miseria y la oscuridad.


RIFF A
e|-----------------------------------|
B|-----------------------------------|
G|-----------------------------------|   X 2
D|-----------------------------------|
A|------------2-5-2-----------1-2~~--|
E|--0-0-3-5----------0-0-3-5---------|


e|---------------------------------------------------|
B|---------------------------------------------------|
G|-------------------------------------------------1-|
D|-------------------------------------------------2-|
A|-----------2-5-2---------2-5-2----------2-5-2----2-|
E|--0-0-3-5--------0-0-3-5-------0-0-3-5--------0--0-|



                       FIN


'hoy somos sueño sin despertar, somos la lluvia que va a caer'
 espero que les guste el tema esta buenisimo
         ¡¡¡aguante skayyyyyy!!!


                 ¡¡¡Zippo!!!
Calificar esta versión:
Aviso: Este fichero es trabajo propio de su transcriptor y representa su interpretación personal de la canción. El material contenido en esta página es para exclusivo uso privado, por lo que se prohibe su reproducción o retransmisión, así como su uso para fines comerciales.
Más versiones de El Gourmet Del Infierno, Skay Beilinson
El Gourmet Del Infierno
tablatura
El Gourmet Del Infierno (ver 2)
tablatura
El Gourmet Del Infierno (ver 3)
tablatura
Descubre más canciones de Skay Beilinson