Donde Estás?, Skay Beilinson (acordes)

Autor: Anónimo | 41708 visualizaciones

bbcddsosfg
INTRO

   G             F            D#
1|------------------------------------|
2|-------12-----------10----------8-8-|
3|------------------------------------|
4|----12----12-----10----10-----8-----| X2
5|-10------------8------------6-------|
6|------------------------------------|

    G            F          D#      D
1|----------------------------------------------------|
2|--------12----------10---------8------7--------7----|
3|----------------------------------------------------|
4|-----12----12----10----10----8------7---7----7---7--|
5|--10-----------8-----------6------5--------5--------|
6|----------------------------------------------------|



G         F            D#
Recorriendo la ciudad

G           F           D#
Miles de rostros vacíos

G              F               D#
Voy sumergido entre la multitud

  D         C
Buscándote, buscándome.



ESTRIBILLO:

G           Bb          D#      Riff
 Quien sos?  Quien sos?

G           Bb          D#      Riff
 Quien sos?  Quien sos?

G         Bb             D#     Riff
 Quien? Quien? Quien sos?

C            D
 Donde estas? Donde estas?

*SOLO SOBRE G - F - D#


RIFF

1|------------------|
2|---3-5-5b-5-3-----|
3|---3-5-5b-5-3-----|
4|--------------5---|
5|--------------5---|
6|------------------|



*REPITE INTRO


Otra vez se hizo de día

En la mesa de algun bar

Mirando el fondo del vaso vacío

Buscándote, buscándome.


*REPITE ESTRIBILLO

*SOLO 2 SOBRE INTRO


Como serán tus ojos?

Como serà que suena tu voz

Es tan presente tu ausencia

Donde estàs? Sigo buscándote..

*ESTRIBILLO


FINAL: G


Aguante Skay loco!!!
Calificar esta versión:
Aviso: Este fichero es trabajo propio de su transcriptor y representa su interpretación personal de la canción. El material contenido en esta página es para exclusivo uso privado, por lo que se prohibe su reproducción o retransmisión, así como su uso para fines comerciales.
Más versiones de Donde Estás?, Skay Beilinson
Donde Estás?
acordes
Donde Estás? (ver 2)
acordes
Descubre más canciones de Skay Beilinson