Con Los Ojos Cerrados, Skay Beilinson (tablatura)

Autor: Anónimo | 30805 visualizaciones

INTRO:               ***Guitarra 2***

      Dm          G6           Dm    Dm    G6         E*
E|----1------1-----3-----3--x---1-----1----3-3-3-3---6-6---|
B|----3------3-----3-----3--x---3-----3----3-3-3-3---5-5---|
G|----2------2-----3-----3--x---2-----2----3-3-3-3---6-6---|
D|--0---0-0-----2----2-2----------0-0---2--2-2-2-2---5-5---|
A|---------------------------------------------------------|
E|---------------------------------------------------------|

      Dm          G6           Dm    Dm    G6         E*
E|----1------1-----3-----3--x---1-----1----3-3-3-3---6-6---|
B|----3------3-----3-----3--x---3-----3----3-3-3-3---5-5---|
G|----2------2-----3-----3--x---2-----2----3-3-3-3---6-6---|
D|--0---0-0-----2----2-2----------0-0---2--2-2-2-2---5-5---|
A|---------------------------------------------------------|
E|---------------------------------------------------------|

          ***Hasta acá la viola entra sola***

      Dm          G6           Dm    Dm    G6         E*
E|----1------1-----3-----3--x---1-----1----3-3-3-3---6-6---|
B|----3------3-----3-----3--x---3-----3----3-3-3-3---5-5---|
G|----2------2-----3-----3--x---2-----2----3-3-3-3---6-6---|
D|--0---0-0-----2----2-2----------0-0---2--2-2-2-2---5-5---|
A|---------------------------------------------------------|
E|---------------------------------------------------------|

      Dm          G6           Dm    Dm    G6         E*
E|----1------1-----3-----3--x---1-----1----3-3-3-3---6-6---|
B|----3------3-----3-----3--x---3-----3----3-3-3-3---5-5---|
G|----2------2-----3-----3--x---2-----2----3-3-3-3---6-6---|
D|--0---0-0-----2----2-2----------0-0---2--2-2-2-2---5-5---|
A|---------------------------------------------------------|
E|---------------------------------------------------------|

     Acordeón:      ***Arreglo para guitarra 1***
E|-------------------------------|-------------------------|
B|--9/10------10/11-10-10--------|-9/10-------10/11-10-----|
G|------10-8-9-------------------|-----10-8-9--------------|x2
D|-----------------------(12)----|--------------------(12)-|
A|-------------------------------|-------------------------|
E|-------------------------------|-------------------------|

            ***Bajo durante la intro***

     Dm     G6         Dm         E*
G|------------------|-------------------||
D|------------------|-------------------|| x2
A|--5-5-----7-7-----|-5-5-----7---------||
E|------5-5-----6-5-|-----5-5---5-6-5---||


Dm          G6        Dm       G6        E*
No solo era un racimo de uvas cualquiera
Dm          G6        Dm       G6
no era tampoco un tipo de vida especial  E*
Dm          G6        Dm       G6    E*
cada uva  traia una semilla
Dm          G6        Dm       G6      E*
cada semilla una historia para contar
***Primer Verso***

                   ***Guitarra 1***

      Dm          G6           Dm    Dm    G6         E*
E|----1------1-----3-----3--x---1-----1----3-3-3-3---6-6-|
B|----3------3-----3-----3--x---3-----3----3-3-3-3---5-5-|
G|----2------2-----3-----3--x---2-----2----3-3-3-3---6-6-|
D|--0---0-0-----2----2-2----------0-0---2--2-2-2-2---5-5-|x4
A|-------------------------------------------------------|
E|-------------------------------------------------------|

                ***Bajo***

     Dm     G6         Dm         E*
G|------------------|-------------------||
D|------------------|-------------------||
A|--5-5-----7-7-----|-5-5-----7---------|| X4
E|------5-5-----6-5-|-----5-5---5-6-5---||


     Acordeón:      ***Arreglo para guitarra***
E|-------------------------------|-------------------------|
B|--9/10------10/11-10-10--------|-9/10-------10/11-10-----|
G|------10-8-9-------------------|-----10-8-9--------------|x1
D|-----------------------(12)----|--------------------(12)-|
A|-------------------------------|-------------------------|
E|-------------------------------|-------------------------|


                   ***Guitarra 2***

      Dm          G6           Dm    Dm    G6         E*
E|----1------1-----3-----3--x---1-----1----3-3-3-3---6-6--|
B|----3------3-----3-----3--x---3-----3----3-3-3-3---5-5--|
G|----2------2-----3-----3--x---2-----2----3-3-3-3---6-6--|
D|--0---0-0-----2----2-2----------0-0---2--2-2-2-2---5-5--|
A|--------------------------------------------------------|
E|--------------------------------------------------------|

      Dm          G6           Dm    Dm    G6         E*
E|----1------1-----3-----3--x---1-----1----3-3-3-3---6-6--|
B|----3------3-----3-----3--x---3-----3----3-3-3-3---5-5--|
G|----2------2-----3-----3--x---2-----2----3-3-3-3---6-6--|
D|--0---0-0-----2----2-2----------0-0---2--2-2-2-2---5-5--|
A|--------------------------------------------------------|
E|--------------------------------------------------------|

              ***Bajo***

     Dm     G6         Dm         E*
G|------------------|-------------------||
D|------------------|-------------------|| x1
A|--5-5-----7-7-----|-5-5-----7---------||
E|------5-5-----6-5-|-----5-5---5-6-5---||

***************************************************



***Segundo Verso***


                   ***Guitarra 1***

      Dm          G6           Dm    Dm    G6         E*
E|----1------1-----3-----3--x---1-----1----3-3-3-3---6-6--|
B|----3------3-----3-----3--x---3-----3----3-3-3-3---5-5--|
G|----2------2-----3-----3--x---2-----2----3-3-3-3---6-6--|
D|--0---0-0-----2----2-2----------0-0---2--2-2-2-2---5-5--|x4
A|--------------------------------------------------------|
E|--------------------------------------------------------|

                ***Bajo***

     Dm     G6         Dm         E*
G|------------------|-------------------||
D|------------------|-------------------||
A|--5-5-----7-7-----|-5-5-----7---------|| X4
E|------5-5-----6-5-|-----5-5---5-6-5---||


Dm          G6        Dm       G6        E*
Un solo punto de vista debajo del cielo
Dm          G6        Dm       G6       E*
una mirada siempre partícula

Dm          G6        Dm       G6           E*
siempre esperando del este que salga la luna
Dm          G6        Dm       G6             E*
siempre al oeste mirando cuando el sol se va


Acordeón:      ***Arreglo para guitarra***
E|-------------------------------|-------------------------|
B|--9/10------10/11-10-10--------|-9/10-------10/11-10-----|
G|------10-8-9-------------------|-----10-8-9--------------|x1
D|-----------------------(12)----|--------------------(12)-|
A|-------------------------------|-------------------------|
E|-------------------------------|-------------------------|


                   ***Guitarra 2***

      Dm          G6           Dm    Dm    G6         E*
E|----1------1-----3-----3--x---1-----1----3-3-3-3---6-6-|
B|----3------3-----3-----3--x---3-----3----3-3-3-3---5-5-|
G|----2------2-----3-----3--x---2-----2----3-3-3-3---6-6-|
D|--0---0-0-----2----2-2----------0-0---2--2-2-2-2---5-5-|
A|-------------------------------------------------------|
E|-------------------------------------------------------|

      Dm          G6           Dm    Dm    G6         E*
E|----1------1-----3-----3--x---1-----1----3-3-3-3---6-6-|
B|----3------3-----3-----3--x---3-----3----3-3-3-3---5-5-|
G|----2------2-----3-----3--x---2-----2----3-3-3-3---6-6-|
D|--0---0-0-----2----2-2----------0-0---2--2-2-2-2---5-5-|
A|-------------------------------------------------------|
E|-------------------------------------------------------|



              ***Bajo***

     Dm     G6         Dm         E*
G|------------------|-------------------||
D|------------------|-------------------|| x1
A|--5-5-----7-7-----|-5-5-----7---------||
E|------5-5-----6-5-|-----5-5---5-6-5---||

****************************************************

***Tercer Verso***


                   ***Guitarra 1***

      Dm          G6           Dm    Dm    G6         E*
E|----1------1-----3-----3--x---1-----1----3-3-3-3---6-6-|
B|----3------3-----3-----3--x---3-----3----3-3-3-3---5-5-|
G|----2------2-----3-----3--x---2-----2----3-3-3-3---6-6-|
D|--0---0-0-----2----2-2----------0-0---2--2-2-2-2---5-5-|x4
A|-------------------------------------------------------|
E|-------------------------------------------------------|

                ***Bajo***

     Dm     G6         Dm         E*
G|------------------|-------------------||
D|------------------|-------------------||
A|--5-5-----7-7-----|-5-5-----7---------|| X4
E|------5-5-----6-5-|-----5-5---5-6-5---||

Dm          G6        Dm       G6         E*
Quien sabe cuantas noches y días de lluvia
Dm          G6        Dm       G6      E*
cada gota trayendo un nuevo temblor
Dm          G6        Dm       G6          E*
otras noches oscuras plagadas de estrellas
Dm          G6        Dm       G6              E*
bailando en el cielo infinito de tanto brillar

***********************************************

INTERLUDIO:    ***Segunda Guitarra***

      G6          Dm        G6          A
E|--3-3-3-3-----1-1-1-1---3-3-3-3----0-0-0-0--|
B|--3-3-3-3-----3-3-3-3---3-3-3-3----2-2-2-0--|
G|--3-3-3-3-----2-2-2-2---3-3-3-3----2-2-2-2--|
D|--2-2-2-2-----0-0-0-0---2-2-2-2----2-2-2-2--|
A|--------------------------------------------|
E|--------------------------------------------|

                ***Primera Guitarra***

    G6                   Dm
e--4b~------4b~-----------(5)------------5-----10b~-8-10b~--
B--4b~--2---4b~--2----2-4-(6)---------6--6-----10b~-8-10b~--
G---------3--------3-------------5-7-------(7)--------------
D----------------------------5-7----------------------------
A-----------------------------------------------------------
E-----------------------------------------------------------


--10b~--8--10b~---8--(10)-------------10---8--(10)---//
--10b~--8--10b~---8--(10)-------------11---8--(10)---//
--------------------------------10-12----------------//
--------------------------10-12----------------------//
-----------------------------------------------------//
-----------------------------------------------------//




                 ***Bajo durante el interludio***


    G6             Dm                   G6              A
G|-------------------------------5------------------------------------
D|-------------5-3-----------7-7---7--5------------3------------------
A|---------5-5-----3-5-5-8-8-------------------5-5---3-5--------7-7---
E|-3-3-6-6------------------------------3-3-6-6----------5-5-8-8------

--------||
--5-----||
---7----||
--------||

**********************************************************************


La Guitarra 1 sigue con la misma base: la 2 hace estos riffs:

            ***Riff 1***                       ***Riff 2***
E|------------------------------------||-----------------------------|
B|------------------------------------||-----------------------------|
G|------------------------------------||-----------------------------|
D|--0-0-0-0-3-0--5-5-5--3-5/--7-5-(3)-||-0-0-0-0-3-0---5-5-5-5-3/2-0-|
A|------------------------------------||-----------------------------|
E|------------------------------------||-----------------------------|

Dm          G6       Dm       G6      E*     Riff 1
Una gota de lluvia irrepetible
Dm          G6        Dm       G6     E*    Riff 2
esa única estrella en la inmensidad
Dm          G6        Dm      G6      E*     Riff 1
cada uva un DIA que ya no vuelve
Dm          G6        Dm       G6     E*    Riff 2
cada racimo una uva en la eternidad

*****************************************************************



SOLO:
             ***Segunda Guitarra***

    G6          Dm        G6         A
E|--3-3-3-3-----1-1-1-1---3-3-3-3----0-0-0-0--|
B|--3-3-3-3-----3-3-3-3---3-3-3-3----2-2-2-0--|
G|--3-3-3-3-----2-2-2-2---3-3-3-3----2-2-2-2--|
D|--2-2-2-2-----0-0-0-0---2-2-2-2----2-2-2-2--|
A|--------------------------------------------|
E|--------------------------------------------|

                      ***Primera Guitarra***
         G6                 Dm               G6
E---------------------------------------------------------------
B------------------------------6---6--8b~---8b~-8p6-8-6-8b~-6---
G-------------------------5--7---7---------------------------7--
D--5p4-(5b~)------3-5/-7----------------------------------------
A-------------3-5-----------------------------------------------
E---------------------------------------------------------------
                       A
----8---------------------------------------------//
-8b~--8----8p6-8-6---8-10-11-10--8-10/-11-11-(10)-//
--------------------------------------------------//
--------------------------------------------------//
--------------------------------------------------//
--------------------------------------------------//


                 ***Bajo durante el solo***

    G6             Dm                   G6              A
G|-------------------------------5------------------------------------
D|-------------5-3-----------7-7---7--5------------3------------------
A|---------5-5-----3-5-5-8-8-------------------5-5---3-5--------7-7---
E|-3-3-6-6------------------------------3-3-6-6----------5-5-8-8------

--------||
--5-----||
---7----||
--------||


Silencio y batería sola.
***********************
   ***Guitarra 2 durante el final***   PARTE FINAL

   D    G6   D      G6      A7
e--2-2--3-3--2-2--3-3-3-3-----------//
B--3-3--3-3--3-3--3-3-3-3---2-2-----//
G--2-2--3-3--2-2--3-3-3-3---0-0-----// Fade out
D-------2-2-------2-2-2-2---2-2-----//
A-----------------------------------//
E-----------------------------------//

      ***Bajo durante el final***

     D     G6         D         G6    A7
G|---------------------------------------||
D|---------------------------------------||
A|---5-5--------------5-5----------------|| Fade out
E|-------5-5-6-6-5--5-----5-5-6--3-5-3-5-||


 arreglo para acordeón:  ***Este punteo se escucha al final***

  ***Ojo que Cambia***           ***Guitarra***
E|-------------5------|  E|--------------------------|
B|---6/7---------8-7--|  B|---7-8/10-8-7----5--------|
G|------7--2-3--------|  G|--7------------7---6-(7)--| Fade out
D|--------------------|  D|--------------------------|
A|--------------------|  A|--------------------------|
E|--------------------|  E|--------------------------|


FIN.       06/08/07         ***NeGra Te AmOoOo!!!***
Calificar esta versión:
Aviso: Este fichero es trabajo propio de su transcriptor y representa su interpretación personal de la canción. El material contenido en esta página es para exclusivo uso privado, por lo que se prohibe su reproducción o retransmisión, así como su uso para fines comerciales.
Más versiones de Con Los Ojos Cerrados, Skay Beilinson
Con Los Ojos Cerrados
acordes
Con Los Ojos Cerrados
tablatura
Descubre más canciones de Skay Beilinson