Boggart Blues, Skay Beilinson (acordes) (ver 2)

Autor: Anónimo | 42871 visualizaciones

aa5a7bb5cc5c7dd7e7ebfsos7f7ggsos7g5g7


Intro: G
G
1|------------------------3------3-----------------------|
2|-0-2_3-0-2_3-0-2_3-2-1-0-------0-----------------------|
3|-0-3_4-0-3_4-0-3_4-3-2-0-----0-0-----------------------|
4|-0-----0-----0-----------0^2---0-----------------------|
5|-------------------------------2-----------------------|
6|-------------------------------3-----------------------| [X2]

C D D4 riff intro [desde ahora: £]
Uy ay ay ay ay [X2]

C D £
Creiste que yo te seguiría
C D £
pero te equivocaste, nena por mí.
C D £
Yo me hice el violento, el hombre fuerte.
C D
Y hoy pago las consecuencias, al fin.

INTER: G5 A5 B5 B5 C5 C5 C5 C5 B5 A5 G5
[G-A-B]

C7
Y hoy me encuentro tirado, incapaz
G7 F#7 F7 E7
sin ganas de vi-vir.
C7
Pensando seriamente que ya no sé si voy a seguir.

[D Eb] [D Eb D]

G7
Yo quise ser muy duro y me salió mal
C7 G7
y ahora veo que todo está por acabar.
5[A]|-3-4-5-|
El fin termina bien
G7 F#7 F7 E7
sólo en las de Humprey Boggart.
E7 A7
El fin termina bien
D G7 F#7 F7 E7
sólo en las de Humprey Boggart.
E7 A7
El fin termina bien
D7
sólo en las de Humprey Boggart.

Final:
1|--------------------------|
2|-----3------2------1------|
3|-2_4---4--3---3--2---2--0-|
4|--------------------------|
5|--------------------------|
6|--------------------------|

[G#7 G7]

 Leo. Para los pepines





Calificar esta versión:
Aviso: Este fichero es trabajo propio de su transcriptor y representa su interpretación personal de la canción. El material contenido en esta página es para exclusivo uso privado, por lo que se prohibe su reproducción o retransmisión, así como su uso para fines comerciales.
Más versiones de Boggart Blues, Skay Beilinson
Boggart Blues
acordes
Boggart Blues (ver 2)
acordes
Boggart Blues
tablatura
Descubre más canciones de Skay Beilinson