Aves Migratorias, Skay Beilinson (tablatura)

Autor: Anónimo | 39116 visualizaciones

Introducción

Guitarra 1
e|----------------------------------------
B|----------------------------------------
G|-------------------------------7-7------
D|-4-4-------7-7-------9-9-------7-7------
A|-4-4-------7-7-------9-9-------5-5------
E|-2-2--x-0--5-5--x-0--7-7--x-0-------x-0-

Guitarra 2
e|--2---2~--
B|----2-----
G|----------
D|----------
A|----------
E|----------

e|--------------------------
B|--------------------------
G|--------------------------
D|-0h2-0--------------------
A|-------4~--2-2-2-0-2/4----
E|-----------------------2~-

e|--------------------------
B|--------------------------
G|--------------------------
D|-0h2-0--------------------
A|-------4~--2-2-2-4--------
E|-------------------2~-----

Bueno el resto despues porque no tengo tiempo juaa

nos vemos
Calificar esta versión:
Aviso: Este fichero es trabajo propio de su transcriptor y representa su interpretación personal de la canción. El material contenido en esta página es para exclusivo uso privado, por lo que se prohibe su reproducción o retransmisión, así como su uso para fines comerciales.
Más versiones de Aves Migratorias, Skay Beilinson
Aves Migratorias
acordes
Aves Migratorias
tablatura
Descubre más canciones de Skay Beilinson