Astrolabio, Skay Beilinson (tablatura)

Autor: Anónimo | 29701 visualizaciones

Intro:
(D-C#*)X4 (B-A-A*)X4 C#

   D   C#*  
e|---------|
B|---7--5--|
G|-------6-|
D|-7-----6-|
A|-5---4---|
E|---------|

  C#                    D C#*
    Como un angel caido
  C#                          D C#*
     brillando en al oscuridad
  C#                                 D C#*
     el llanto ahogado en la garganta 
  C#                    D C#*
     el grito del dolor
 B A A*
     bailando ante mis ojos
 B A A*
      dando tumbos en al noche
 N A A* 
     con el viento entre las manos 
DO#  
   te vi.

(C#* D C#*)

La olas del destino
a esta playa te trayeron
la madera esta partida
ahora es tiempo de talar
navegante, tu canoa.

E D A B

E           B     A  B
 a navegar el abismo
E           B     A    B
 a navegar el silencio
E           B      A  B
 a navegar tempestades
B                                        C# P2
 con la proa en el norte y la cruz en el sur.

P2
e|---------|
B|-6~~-9/10|
G|---------|
D|---------|
A|---------|
E|---------|

Eterno peregrino
de los mares, de loS sueños
cuando suba la marea
cuando halla fuego en los altares
soplaré tu suerte al viento.

  SOLO (3:24)
e|------------------------------------------7-7-4-7-7-4-7-7-9p-|
B|-------------------------------------------------------------|
G|-9~~---------9---------9-9-6-6-------6-7-9--------------SIGUE|
D|-------6-7-9-9-7-6-9-----9------6-7-9------------------------|
A|------7------------------------------------------------------|
E|-------------------------------------------------------------|

 suelten las amarras
 y despleieguen las velas
 a navegar el abismo...


ACORDES: (con algunos hay que 'jugar' para que suenen)
   C#   E    A*  A   B
e|----|----|-0-|---|---|
B|----|----|-1-|---|---|
G|-6--|--9-|-1-|---|---|
D|-6--|--9-|---|-7-|-9-|
A|-4--|--7-|---|-7-|-9-|
E|----|-0~-|---|-5-|-7-|

Bueno aca esta Astrolabio mucho mas completo... 
espero que les guste...
Acepto criticas...
Calificar esta versión:
Aviso: Este fichero es trabajo propio de su transcriptor y representa su interpretación personal de la canción. El material contenido en esta página es para exclusivo uso privado, por lo que se prohibe su reproducción o retransmisión, así como su uso para fines comerciales.
Más versiones de Astrolabio, Skay Beilinson
Astrolabio
acordes
Astrolabio (ver 2)
acordes
Astrolabio
tablatura
Descubre más canciones de Skay Beilinson