Angeles Caidos, Skay Beilinson (tablatura) (ver 2)

Autor: Anónimo | 42704 visualizaciones

 Intro y versos

e-------------------------------------------------------
b----------8-7--------------8---------------------------
g-7-7-7--7--------7-7-7---7---7-------------------------
d-7----7----------7-----7-------------------------------
a-------------------------------------------------------
E-------------------------------------------------------

e----------------9-9-----------------10-----------------
b--10-10-10-9-10-------10-10-10-9-10--------------------
g---9-------------------9---------------12^-------------
d-------------------------------------------------------
a-------------------------------------------------------
E-------------------------------------------------------

  Teclado (sobre base estribillo)

e--9--6-----5--4-----------9--6---5--4^------------------
b--------7--------7-------------7------------------------

 Viola: Fa#5 - Si5 - Re5
        FA#5 - SI5 - DO#5


Con una mueca de sonrisa
Cerrabas la puerta de tu corazón,
Secaste las lágrimas,
El pibe que fuiste dejó de jugar.

Sos una sombra
que acecha en la oscuridad
Sos ese miedo
que no puede dormir
Aún así alguien vela por vos
Aunque no siempre te toque ganar.

Entraste en barrios custodiados
Llevabas como escudo
la remera del Che
Apretado en el pecho
El rosarito blanco
que la chiqui te dio.

Sos una sombra
que acecha en la ciudad
Sos ese miedo
que no quiere dormir
Aun así un ángel vela por vos
Aunque a veces te toca perder

Corte en Mi

Vuelve al Estribillo

Riff en Mi (correr todas las notas 1 tono entero)
"Ahí vas, ahí vas,
con tu carrito, ahí vas.."

Estribillo

Final
e-------------------------------------------------------
b-------------------------------------------------------
g--4444-------------------------------------------------
d--4444---2---------------------------------------------
a--2222---2---------------------------------------------
E---------0--3-2-0--------------------------------------

e--7---------------------------     Teclado
b---7---5--8-7---5-------------




 Facundo Madrid
 Rosario, Argentina 2007
 Cualquier duda, mi mail es iguanadie@hotmail.com
 Un abrazo!
Calificar esta versión:
Aviso: Este fichero es trabajo propio de su transcriptor y representa su interpretación personal de la canción. El material contenido en esta página es para exclusivo uso privado, por lo que se prohibe su reproducción o retransmisión, así como su uso para fines comerciales.
Más versiones de Angeles Caidos, Skay Beilinson
Angeles Caidos
tablatura
Angeles Caidos (ver 2)
tablatura
Descubre más canciones de Skay Beilinson