Roulette, Sistem Of A Down (tablatura) (ver 2)

Autor: Rayman_95 | 25279 visualizaciones

Hay muchas formas de hacerlo y sale bien. Yo tengo dos formas.

Forma 1

E--------------------------------------------------- 
B-----4--4----8-------6----9-----9----8-------6---3- 
G--------------------------------------------------- 
D--------------------------------------------------- 
A---6--6--10----10/8----8/11--11---10----10/8---8/6- 
E---------------------------------------------------

Forma 2 

E---------------------------------------------------
B-----4--4----5----6-----9--9--8----6-----4---------
G---------------------------------------------------
D---------------------------------------------------
A---3--3--3/6--6/5--5/8---8--7--7/5---5/3-----------
E---------------------------------------------------

y ai estan por si las dudas contactenme. 

Por ahi esta mi correo. Aun k falta ese rekinto.

Si puedo konseguirlo lo pondre. 
Calificar esta versión:
Aviso: Este fichero es trabajo propio de su transcriptor y representa su interpretación personal de la canción. El material contenido en esta página es para exclusivo uso privado, por lo que se prohibe su reproducción o retransmisión, así como su uso para fines comerciales.
Más versiones de Roulette, Sistem Of A Down
Roulette
tablatura
Roulette (ver 2)
tablatura
Roulette (ver 3)
tablatura
Descubre más canciones de Sistem Of A Down