Lonely Day, Sistem Of A Down (bajo)

Autor: diegol.messi | 43603 visualizaciones

F----------------------|      
C-6-6-------9-9--------| X4
G------7-7-------6-6---| (00:38-00:51)
C----------------------|


F----------------------|
C-6--------9-----------| X4
G------7--------6------| 
C----------------------|

 
F----------------------|
C----------------------| X2
G-7-7--6-6--9-9--11-11-| 
C----------------------|


F--------------------------|
C--------------------------| 
G-777777777777888888888888-|
C--------------------------|


F----------------------|
C-6--------9-----------| X4
G------7--------6------| 
C----------------------|


F----------------------|
C-6-6-------9-9--------| X4
G------7-7-------6-6---| 
C----------------------|

Calificar esta versión:
Aviso: Este fichero es trabajo propio de su transcriptor y representa su interpretación personal de la canción. El material contenido en esta página es para exclusivo uso privado, por lo que se prohibe su reproducción o retransmisión, así como su uso para fines comerciales.
Más versiones de Lonely Day, Sistem Of A Down
Lonely Day
acordes
Lonely Day
tablatura
Lonely Day (ver 2)
tablatura
Lonely Day
bajo
Descubre más canciones de Sistem Of A Down