Kilometros (intro), Sin Bandera (tablatura)

Autor: Anónimo | 30734 visualizaciones

INTRO: TIENE BUEN SONIDOO!!! 

Arpegio.. cuerda con cuerda!! sonidos a la vez!!



e-9-9-9-9/7--7-7--5-5----5-7-9-----------5/12-|
B----------------------5--------7-5-5/7-------|
G-9-9-9-9/7--7-7--6-6----6-7-9----------------|
D----------------------7--------0-------------|
A----------------------------------------4----|
E---------------------------------------------|
      

e-5-----|
B-5-5---|
G-6---0-|
D-----1-|
A-----2-|
E---7---|

ACORDES: aca muestro los acords en posiciones q suenan un poco mas parecido: no puse la letra xq no tuve las ganas jaja!


A varios cientos de kilometross...

  A=La    D=Re  C#=Do#  Bm=Sim   E
e-0----|---0---|---x---|--1---|--0--|
B-0----|---3---|---0---|--2---|--0--|
G-4----|---2---|---2---|--1---|--1--|
D-2----|---0---|---2---|--4---|--2--|
A-0----|---0---|---4---|--1---|--2--|
E-x----|---x---|---x---|--x---|--0--|



Los acordes q le muestro aca puedn sustituirlos por los otros q son mostrados en otras transcripciones.. y convinar:p jeje A mi m parece q esta esta bn cualquier cosa comenten!!!
Aviso: Este fichero es trabajo propio de su transcriptor y representa su interpretación personal de la canción. El material contenido en esta página es para exclusivo uso privado, por lo que se prohibe su reproducción o retransmisión, así como su uso para fines comerciales.

Comentarios en Facebook: