Junto A Tí, Sin Bandera (tablatura)

Autor: Anónimo | 37126 visualizaciones

Tab junto a ti(URBAN VERSION)-Sin bandera
Por:Ramiro cordero
INTRO:
E|----4-5-7-7/9-7---|-7-5-4---5-4-----|---4---4--
B|------------------|-------7-----7-4-|-5---5---5
G|------------------|-----------------|----------
                    |   Parte rápida  |
E|---2---2-------0---|-4-4-5-7-5-4-5-4---|
B|-4---4---4---2---2-|-----------------5-|
G|-------------------|-------------------|

Letra: E, B, C#m, B
E           B   C#m
JUNTO A TI
            B          E………aquí le siguen con la misma secuencia
YO QUIERO ESTAR CONTIGO………
QUIERO SER UN POCO MAS QUE AMIGO
DESPERTAR:
E|--4-4-4-5-7---

CONTIGO EN LA MAÑANA:
E|-5-5-4-----
B|--------5---
TU EN MI:
E|-7-5-4------4-4-5-7
B|-------7-4---------
Y EL MAR EN LA VENTANA…
Aquí siguen con el punteito
CORO:
JUNTO A TI YO SOY…
E|---4---4------2---2------0----|-4-4-5-5/7-4-4-5-4--|
B|-5---5---5--4---4---4--2---2--|-------------------5|

Después todo se repite
Aviso: Este fichero es trabajo propio de su transcriptor y representa su interpretación personal de la canción. El material contenido en esta página es para exclusivo uso privado, por lo que se prohibe su reproducción o retransmisión, así como su uso para fines comerciales.

Comentarios en Facebook: