Igual Que Yo, Sin Bandera (acordes) (ver 2)

Autor: Anónimo | 26976 visualizaciones

abcsosm7efsosm7
Otra rola muy buena de S.B muy reciente y yo creo que va

Ah ser otro éxito como lo han hecho hasta ahora

Casi nunca me gusta dedicar las tab pero en esta ocasión quiero

Dedicarla a una persona muy especial que vino a cambiar mi vida

UNA NIÑA MUY LINDA: REBECA T.Q.M

Bueno ahora si después de los comentarios y dedicatorias :

La versión que yo saque es con CAPO EN 1ER TRASTE
o la afinacion medio tono arriba [e#,c,g#,d#,a#,E#],
Para facilitar la postura de los dedos
Y este tab empieza a partir de el arpegio [ 0.15]sec
INTRO
RIFF 1
e|-----0---0-----------0---0---------------
B|-------4---------------4-----------------
G|-----------------------------------------
D|---4-------4--6----4-------4--6----------
A|-----------------------------------------
E|--0---------------0----------------------


e|------0---2---2------0---2----2------
B|--------4--------------4-------------
G|-------------------------------------
D|----4------4-------4--------4--------
A|--2--------------2-------------------
E|-------------------------------------


e|------0---0------------0---0--------------
B|--------4----------------4----------------
G|--------------2-----------------2---------
D|----4-------4--------4--------4-----------
A|--0----------------0----------------------
E|------------------------------------------


e|------0---0-------------0----2-------
B|--------4------------------4---------
G|-------------------------------------
D|----4--------4--6-----4--------------
A|-------------------------------------
E|--4-----------------2----------------

Se repite el intro 2 veces en la 1ra parte de la canción

RIFF1
Por que sientes la pasión
Que arde siempre en tu respiración
Así  igual que yo

Por que tienes la ansiedad 
De vivir soñando en libertad
Así igual que yo

RIFF 2

e|------0---0----------0---0-----------0---0----------0---0----
B|--------4-----4--------4----4----------4----4---------4-----4
G|-------------------------------------------------------------
D|----4-------4------4-------4-------4-------4------4-------4--
A|--0--------------2-------------------------------------------
E|---------------------------------0--------------4------------

E|------0---0----------0---0------------0---0-----------0------
B|--------4-----4--------4-----4----------4----4-----------4---
G|-------------------------------------------------------------
D|----4-------4------4--------4-------4-------4-------4--------
A|--0--------------2-------------------------------------------
E|----------------------------------0---------------2----------

RIFF2 igual se toca dos veces en la sig parte

Por que tienes una fe imposible de romper
Por que sientes esa luz aunque no la ves
Por que aprendes a volar aunque tengas que caer
Por que sabes que no hay ya nada que perder

CORO:

        E                   B
Por eso tu me salvaras, me guiaras, me sanaras  
              A                  C#m7          B
Si caigo alguna vez tan solo lléname la fe y sanare
        E                       B
Por eso yo te cuidare, te esperare, vigilare
             A                         C#m7
Que tengas que volver cuando tu amor muera de sed
    B               F#m7
Y te amare, y te amare

RIFF1

Por que sabes que el amor 
Es lo que hace a un hombre algo mejor
Así igual que yo

RIFF2

Por que tienes una fe imposible de romper
Por que sientes esa luz aunque no la ves
Por aprendes a volar aunque tengas que caer 
Por que sabes que no hay ya nada que perder

CORO
        E                   B
Por eso tu me salvaras, me guiaras....

Eso es todo ojala  le puedan entender
Y sino mandenme un correo a

jor_g3@hotmail.com   RBK T.Q.M
Aviso: Este fichero es trabajo propio de su transcriptor y representa su interpretación personal de la canción. El material contenido en esta página es para exclusivo uso privado, por lo que se prohibe su reproducción o retransmisión, así como su uso para fines comerciales.

Comentarios en Facebook: