Entra En Mi Vida, Sin Bandera (tablatura)

Autor: Anónimo | 22482 visualizaciones

intro:


  E-----------------------5---------------------------------------------|
  A-3----------------------7----------------------3---------------------|
  D---5---------------------5------------------------5------------------|
  G-----5------9-7-4---------5-------14-12-9------------5------9-7-4----|
  B-------3-5---------3-5-----5----------------10----------3-5-------3-5|
  e------------8-7-3-----------------13-12-8-------------------8-7-3----|


  E--------------------------
  A-5-----7------8-----------|
  D---7-----9-----10---------|
  G-----5-----7-----10-------|
  B------6-----8------8------|
  e---------------------8----|

Do                                 Fa
  Buenas noches, mucho gusto, eras una chica mas
Do                                 Fa
  después de cinco minutos ya eras alguien especial
Rem                                MIm
  Sin hablarme, sin tocarme, algo dentro se encendió
Rem                                   Fa
  en tus ojos se hacia tarde y me olvidaba del reloj.

Do                             Fa
  Estos días a tu lado me enseñaron que en verdad
Do                                Fa
  no hay tiempo de terminado para comenzar a amar
Rem                                 Mim
  Siento algo tan profundo que no tiene explicación
Rem                 Fa         sol
  no hay razón ni lógica en mi corazón.



              Do                 lam
  Entra en mi vida, te abro la puerta
                Rem          Fa             Sol
  se que en tus brazos ya no habrá noches desiertas
              Do                 lam
  Entra en mi vida, yo te lo ruego
        Rem         Mim             Fa
  te comencé por extrañar, pero empecé
        Sol         Do
  a necesitarte luego.

Do                             Fa
  Buenas noches, mucho gusto, ya no existe nadie mas
Do                                     Fa
  después de este tiempo juntos, no puedo volver atrás
Rem                                  Mim
  Tu me hablaste, me tocaste y te volviste mi ilusión
Rem                 Fa           Sol
  quiero que seas dueña de mi corazón.

             Do                 lam
  Entra en mi vida, te abro la puerta
                  Rem          Fa           Sol
  se que en tus brazos ya no habrá noches desiertas
              Do                 lam
  Entra en mi vida, yo te lo ruego
        Rem         Mim             Fa
  te comencé por extrañar, pero empecé
           Sol     Fa
  a necesitarte luego.

                Do             Fa
  Entra en mis horas, sálvame ahora
           Rem    Mim    Fa    Sol      La
  abre tus brazos fuerte y déjame entrar



               Re                sim
  Entra en mi vida, te abro la puerta
                Mim           Sol                 La
  se que en tus brazos ya no habrá noches desiertas
               Re                 sim
  Entra en mi vida, yo te lo ruego
        MIm          Fa#m          Sol
  te comencé por extrañar, pero empecé
           La       Re
  a necesitarte luego ...

  E-----------------------7--------------------------------------------|
  A-5----------------------9--------------------5----------------------|
  D---7---------------------7-----------------------7------------------|
  G-----7------11-9-6--------7-------16-14-11-----------7-------11-9-6-|
  B-------5-7---------5-7-----7----------------12----------5-7---------|
  e------------10-9-5----------------15-14-10-------------------10-9-5-|
                                             Te comencé por extrañar


  E-------------------------------------------|
  A-------7----------9------10----------------|
  D----------9---------11-----12--------------|
  G--------------7-------9------12------------|
  B----5-7----------6------8------10----------|
  e----------------------------------10-------|
    pero empecé a    necesi--taaaaaaaarte  luego....






Esta es una transcripcion personal de un usuario de www.letrasyacordes.net - El 
material contenido en esta pagina es para exclusivo uso privado, quedando 
prohibida su reproduccion o retransmision, asi cnes 
comerciales.
ENTRA EN MI VIDA - Sin Bandera   | Transcripta por Juan Carlos Perez Martinez  
=>  | hits: 
79----------------------------------------------------------------------------------------------
No hay información gráfica sobre los acordes. Estamos trabajando para actualizar 
esta canción.
----------------------------------------------------------------------------------------------



Que onda pues esta es la transcripcion correcta en guitarra de esta
rola, esta chida y fue el primer exito de Sin Bandera, espero que les
guste..... Saludos a la banda, y pues gracias a Luis que me la enseño.


intro:


  E-----------------------5---------------------------------------------|
  A-3----------------------7----------------------3---------------------|
  D---5---------------------5------------------------5------------------|
  G-----5------9-7-4---------5-------14-12-9------------5------9-7-4----|
  B-------3-5---------3-5-----5----------------10----------3-5-------3-5|
  e------------8-7-3-----------------13-12-8-------------------8-7-3----|


  E--------------------------
  A-5-----7------8-----------|
  D---7-----9-----10---------|
  G-----5-----7-----10-------|
  B------6-----8------8------|
  e---------------------8----|

Do                                 Fa
  Buenas noches, mucho gusto, eras una chica mas
Do                                 Fa
  después de cinco minutos ya eras alguien especial
Rem                                MIm
  Sin hablarme, sin tocarme, algo dentro se encendió
Rem                                   Fa
  en tus ojos se hacia tarde y me olvidaba del reloj.

Do                             Fa
  Estos días a tu lado me enseñaron que en verdad
Do                                Fa
  no hay tiempo de terminado para comenzar a amar
Rem                                 Mim
  Siento algo tan profundo que no tiene explicación
Rem                 Fa         sol
  no hay razón ni lógica en mi corazón.



              Do                 lam
  Entra en mi vida, te abro la puerta
                Rem          Fa             Sol
  se que en tus brazos ya no habrá noches desiertas
              Do                 lam
  Entra en mi vida, yo te lo ruego
        Rem         Mim             Fa
  te comencé por extrañar, pero empecé
        Sol         Do
  a necesitarte luego.

Do                             Fa
  Buenas noches, mucho gusto, ya no existe nadie mas
Do                                     Fa
  después de este tiempo juntos, no puedo volver atrás
Rem                                  Mim
  Tu me hablaste, me tocaste y te volviste mi ilusión
Rem                 Fa           Sol
  quiero que seas dueña de mi corazón.

             Do                 lam
  Entra en mi vida, te abro la puerta
                  Rem          Fa           Sol
  se que en tus brazos ya no habrá noches desiertas
              Do                 lam
  Entra en mi vida, yo te lo ruego
        Rem         Mim             Fa
  te comencé por extrañar, pero empecé
           Sol     Fa
  a necesitarte luego.

                Do             Fa
  Entra en mis horas, sálvame ahora
           Rem    Mim    Fa    Sol      La
  abre tus brazos fuerte y déjame entrar



               Re                sim
  Entra en mi vida, te abro la puerta
                Mim           Sol                 La
  se que en tus brazos ya no habrá noches desiertas
               Re                 sim
  Entra en mi vida, yo te lo ruego
        MIm          Fa#m          Sol
  te comencé por extrañar, pero empecé
           La       Re
  a necesitarte luego ...

  E-----------------------7--------------------------------------------|
  A-5----------------------9--------------------5----------------------|
  D---7---------------------7-----------------------7------------------|
  G-----7------11-9-6--------7-------16-14-11-----------7-------11-9-6-|
  B-------5-7---------5-7-----7----------------12----------5-7---------|
  e------------10-9-5----------------15-14-10-------------------10-9-5-|
                                             Te comencé por extrañar


  E-------------------------------------------|
  A-------7----------9------10----------------|
  D----------9---------11-----12--------------|
  G--------------7-------9------12------------|
  B----5-7----------6------8------10----------|
  e----------------------------------10-------|
    pero empecé a    necesi--taaaaaaaarte  luego....
Aviso: Este fichero es trabajo propio de su transcriptor y representa su interpretación personal de la canción. El material contenido en esta página es para exclusivo uso privado, por lo que se prohibe su reproducción o retransmisión, así como su uso para fines comerciales.
Más versiones de Entra En Mi Vida, Sin Bandera
Entra En Mi Vida
acordes
Entra En Mi Vida (ver 2)
acordes
Entra En Mi Vida (ver 3)
acordes
Entra En Mi Vida (ver 4)
acordes
Entra En Mi Vida (ver 5)
acordes
Entra En Mi Vida (ver 6)
acordes
Entra En Mi Vida
tablatura
Entra En Mi Vida
bajo
Entra En Mi Vida
teclado
Entra En Mi Vida (ver 2)
teclado
Descubre más canciones de Sin Bandera

Comentarios en Facebook: