El Angel Que Eres Tu, Sin Bandera (tablatura)

Autor: Anónimo | 36665 visualizaciones

11/Abril/2013/Jueves/1:49pm

Estos Acordes los saque
de una grabación acústica que
tiene un amigo mio, claro, de Sin Bandera...

Así que... Estos acordes son los que usa Leonel.


     Acordes Originales
    ((Click en calidad))

   F   C   A#   Dm
1|-0---0----0---0--
2|-6---6----6---6--
3|-0---0----0---0--
4|-7---7----x---x--
5|-8---x----x---5--
6|-x---8----6---x--

Intro: Donde tiene el(x2)se repite 2 veces la misma nota
       con sus respectivos arpegios y bageos.

   F           C            A#           Dm        C
1|----0-----------0-------------0-----------0---------0-------
2|---6-6-6-x2----6-6-6-x2------6-6-6-x2----6-6--6----6-6------
3|--0---0-------0---0---------0---0-------0----0----0---------
4|------------------------------------------------------------
5|-8-------------------------------------5--------------------
6|-------------8-------------6---------------------8----------

--Versos--
    F           C            A#           Dm        C
1|----0-----------0-------------0-----------0---------0-------
2|---6-6-6-x2----6-6-6-x2------6-6-6-x2----6-6--6----6-6--6---
3|--0---0-------0---0---------0---0-------0----0----0----0----
4|------------------------------------------------------------
5|-8-------------------------------------5--------------------
6|-------------8-------------6---------------------8----------

F                       C                          A#
 Por que sientes la pasión que arde siempre en tu respiración
  Dm           C
así igual que yo,
F                        C
 por que tienes la ansiedad
                 A#
de vivir soñando en libertad
  Dm           C
así igual que yo,

--Pre-coro--
En la nota A la tocamos con cejilla
       A
1|--------------
2|-------5------
3|------6-6-----
4|-----7---7----
5|----7---------
6|---5----------

A#           C         F
  Por que tienes una fe
     A             Dm
imposible de romper
         C           F
por que sientes esa luz
       C          A#
aunque no la vez
           C          F
por que aprendes a volar
        A              Dm
aunque tengas que caer
        C                      2|-------6--
porque sabes que no hay        3|------9---
 F        C                    4|-----7---- -]x4
ya nada que perder... -----] C 5|----x-----
                               6|---8------
--Coro--
   F           C            A#           Dm        C
1|----0-----------0-------------0-----------0---------0-------
2|---6-6-6-x2----6-6-6-x2------6-6-6-x2----6-6--6----6-6--6---
3|--0---0-------0---0---------0---0-------0----0----0----0----
4|------------------------------------------------------------
5|-8-------------------------------------5--------------------
6|-------------8-------------6---------------------8----------
         F                      C
Por eso tú me salvarás, me guiarás,
                       A#
me sanarás si caigo alguna vez,
               Dm           C
tan solo lléname la fe y sanaré...
         F                       C
Por eso yo te cuidaré, te esperaré,
                      A#
vigilaré que tengas que beber
                   Dm             2|-----6--------
cuando tu amor muera de sed       3|----9---------
  C                               4|---7---------- x4
y te amaré y te amaré...--]   F   5|--8-----------

--Versos--
    F           C            A#           Dm       C
1|----0-----------0-------------0-----------0---------0-------
2|---6-6-6-x2----6-6-6-x2------6-6-6-x2----6-6--6----6-6--6---
3|--0---0-------0---0---------0---0-------0----0----0----0----
4|------------------------------------------------------------
5|-8-------------------------------------5--------------------
6|-------------8-------------6---------------------8----------

F                       C
 por que sabes que el amor
                           A#
es lo que hace a un hombre algo mejor
  Dm           C
así igual que yo,

--Pre-coro--
A#         C         F
  por que tienes una fe
     A             Dm
imposible de romper
         C           F
por que sientes esa luz
       C          A#
aunque no la vez
           C          F
por que aprendes a volar
        A              Dm
aunque tengas que caer
        C                      2|-------6--
porque sabes que no hay        3|------0---
 F        C         A#         4|-----7---- -]x4
ya nada que perder... -----] C 5|----x-----
                               6|---8------
--Coro--
Aquí esta un poco difícil los acordes,
ya que son en rasgueo y llevan cejilla

    F   C   A#  Dm
1|--5---8---6---5--
2|--6---8---6---6--
3|--5---9---7---7--
4|--7---10--8---7--
5|--8---10--8---5--
6|------8---6-----

         F                      C
Por eso tú me salvarás, me guiarás,
                       A#
me sanarás si caigo alguna vez,
               Dm           C
tan solo lléname la fe y sanaré...
         F                       C
por eso yo te cuidaré, te esperaré,
                      A#
vigilaré que tengas que beber
                   Dm
cuando tu amor muera de sed
  C
y te amaré...

--Coro--
    F   C   A#  Dm
1|--5---8---6---5--
2|--6---8---6---6--
3|--5---9---7---7--
4|--7---10--8---7--
5|--8---10--8---5--
6|------8---6------
         F                      C
Por eso tú me salvarás, me guiarás,
                       A#
me sanarás si caigo alguna vez,
               Dm           C
tan solo lléname la fe y sanaré...
         F                       C
por eso yo te cuidaré, te esperaré,
                      A#
vigilaré que tengas que beber
                   Dm
cuando tu amor muera de sed
  C
y te amaré y te amaré...
Final:
 Rift
   F
1|-0--
2|-6--
3|-0--
4|-7--
5|-8--
6|-x--

Si tienen duda agreguenme.
www.facebook.com/AlexFabianChords
Cchecuu
Saludos desde Chiapas-México
Aviso: Este fichero es trabajo propio de su transcriptor y representa su interpretación personal de la canción. El material contenido en esta página es para exclusivo uso privado, por lo que se prohibe su reproducción o retransmisión, así como su uso para fines comerciales.

Comentarios en Facebook: