De Viaje, Sin Bandera (tablatura)

Autor: Anónimo | 41084 visualizaciones

HOLA A TODOS!!! ESTE TAB ES LO MAS CERCANO AL SONIDO DEL PIANO DE LA CANCION,
ES UNA MEZCLA DE PIANO Y DE LA GUITARRA...  ADIOS CUIDENSE MUCHO, UN SALUDO
EN ESPECIAL PARA CAROLINA CORTES JEJE MI COSITA TE QUIERO MUCHO ESPÉRO QUE CUANDO
LA VEAS TE GUSTE COSITA, CUALQUIER COMENTARIO FAVOR DE ESCRIBIR A delpieroponce@hotmail.com



E||------------------|--------------8--10--|--12---------12----10----|
B||------------------|---------------------|--------8----------------|
G||------------------|---------------------|--------0----------------|
D||------------------|---------------------|-------------------------|
A||------------------|---------------------|-------------------------|
E||------------------|---------------------|--8----------------------|


-------8------7----8----|-------------3----5----|--20---|
------------8-----------|----------6------------|-------|
--0---------------------|-------5---------------|-------|
-------7----------------|-----------------------|-------|
------------------------|--8--------------------|-------|
------------------------|-----------------------|-------|


aqui metemos la guitarra:

       C9      G5     Fmaj7-F         C9      G5     Fmaj7-F
E------0---0---3----------------------0---0---3----------------
B--1-3-------0-3-1-0--1-----1-----1-3-------0-3-1-0--1-----1---
G--------0----------------2-------------0----------------2-----
D-----------------------3------------------------------3-------
A------3------------------------------3------------------------
E--------------3------1-----------------------3------1---------



          C9                            G5
En este viaje que cada mañana lleno de sueños comienzo en la cama
          Am                                     Fmaj7                 F
Soy un turista que a veces no entiende el raro idioma que me habla la gente
        C9                                    G5
Tantas aduanas entre unos y otros tantas fronteras volviéndonos pocos
      Am7                                       Fmaj7               F
Hay tantos muros entre las miradas que aunque nos vemos  nunca vemos nada

           Em               Am                 G5                   C9
He visto ruinas de sueños caídos mares de fe, desiertos de olvi-ido
        Em              Am              Am7/G  F                G Gsus4
Y cuando más me encontraba  perdido, un mapa de mí me entregaste tú

       C9       G5        Fmaj7  F          C9      G5       Fmaj7 F
Continuemos el viaje los dos,       mismo cielo misma habitación,
       C9       Em       Am     Am7/G      F      C9                C9 (Intro)
ya no voy a buscar eres tu el lugar que soñé…de viaje        te amaré.


Perdí  mi tren por quedarme dormido, en el hotel de creerme vencido

Corrí las calles de valor perdido, pensé que el viaje no tenía sentido


He visto lunas de sueños caídos, mares de fe, desiertos de olvido

Y cuando más me encontraba perdido, un mapa de mí, me entregaste tú.


Continuemos el viaje los dos, mismo cielo misma habitación
                                                             D A F C9 Dm G Gsus4
ya no voy a buscar eres tu el lugar que soñé…de viaje te amaré


Continuemos el viaje los dos...

ya no voy a buscar eres tú el lugar que soñé... de viaje



NOTA: PARA FINALIZAR LA CANCION PUEDES METER EL INTRO DE LA GUITARRA Y ASI ACABAR MAS ARMONICAMNETE
NOS VEMOS LUEGO
Aviso: Este fichero es trabajo propio de su transcriptor y representa su interpretación personal de la canción. El material contenido en esta página es para exclusivo uso privado, por lo que se prohibe su reproducción o retransmisión, así como su uso para fines comerciales.

Comentarios en Facebook: