Welcome To My Life, Simple Plan (bajo)

Autor: guyguitar | 15896 visualizaciones

Welcome to my Life((SIMPLE PLAN))
...
 
Do you ever like breaking down?
Do you ever feel out of place?
Like somehow you just don't belong,
and no one understands you.
 

G|-------------------------------------
D|-------------------------------------
A|--44-X4X4----------------------------
E|----------66-X-66-22-X-22--44-X-44-4-
Do you ever wanna run away?
Do you lock yourself in your room?
With the radio on turned up so loud,
and no one hears you screaming.
/////
G|-------------------------------------------------
D|-------------------------------------------------
A|---------~~9-7-4--------~13-11-8--------~9-7-4---
E|--22-2-2---------6-66-6----------22-2-2--------4~
No you don't know what its like
When nothing feels alright
You don't know what its like to be like me...
/////
coro.............................
G|-------------------------------------
D|-------------------------------------
A|-~4-------44---~4---------44----~4---
E|----66-22----44----66-X22----44------
To be hurt, to feel lost, to be left out in the dark
To be kicked when you're down, to feel like you've been pushed around

G|----------------------------------------
D|----------------------------------------
A|---~~~~13---~~~~9--4444-----66-6-66-8-9~
E|-66-------22------------4444------------
To be on the edge of breaking down, when no one's there to save you
No you don't know what its like
Welcome to my life
.............................

G|-----------------------------------------
D|-----------------------------------------
A|--44-X4X4------8----------4--------6------
E|----------66-6---66-4-22-X-22--44-X-44-4-
Do you wanna be somebody else?
Are you sick of being so left out?
Are you desperate to find something more,
before your life is over?

G|-----------------------------------------
D|-----------------------------------------
A|--44-X4X4------8----------4--------6------
E|----------66-6---66-4-22-X-22--44-X-44-4-
Are you stuck inside a world you hate?
Are you sick of everyone around?
With the big fake smiles and stupid lies,
While deep inside your bleeding
/////
G|-------------------------------------------------
D|-------------------------------------------------
A|---------~~9-7-4--------~13-11-8--------~9-7-4---
E|--22-2-2---------6-66-6----------22-2-2--------4~
No you don't know what its like
When nothing feels alright
You don't know what its like to be like me...

coro.............................
G|-------------------------------------
D|-------------------------------------
A|-~4-------44---~4---------44----~4---
E|----66-22----44----66-X22----44------
To be hurt, to feel lost, to be left out in the dark
To be kicked when you're down, to feel like you've been pushed around

G|----------------------------------------
D|----------------------------------------
A|---~~~~13---~~~~9--4444-----66-6-66-8-9~
E|-66-------22------------4444------------
To be on the edge of breaking down, when no one's there to save you
No you don't know what its like
Welcome to my life
.............................

G|-------------------------------------
D|-------------------------------------
A|-~4-------~4-------~4-------2~4-6----
E|----22-22----66-66----22-22-------4--
No one ever lies straight to your face
And no one ever stabs you in the back
You might think I'm happy
But I'm not gonna be okay

G|------------------------------------------
D|------------------------------------------
A|-------4-------4-6-6-6-6666-8-9-99-9------
E|-22-22---66-66----------------------------
Everybody always gave you what you wanted
You never had to work it was always there
You don't know what it's like...what it's like

coro FINAL

G|--------------------------------------
D|--------------------------------------
A|--------------------------------------
E|-~~~~~~6------------------------------
To be hurt, to feel lost, to be left out in the dark

G|-------------------------------------
D|---------------------------------------
A|--------------------------------------
E|--------------------------------------
To be kicked when you're down, to feel like you've been pushed around

G|----------------------------------------
D|----------------------------------------
A|-------------------4444-------66-6-66-8-9~
E|-66-66-6--22-2--22------4444------------
To be on the edge of breaking down, when no ones there to save you
No you don't know what its like, what its like

G|------------------------------------------------
D|------------------------------------------------
A|~4--------------44444-------4---------4444----4
E|---66-6666-2222-------44444--6666-2222----4444-
To be hurt, to feel lost, to be left out in the dark
To be kicked when you're down, to feel like you've been pushed around

G|----------------------------------------
D|----------------------------------------
A|---~~~~13---~~~~9--4444-----66-6-66-8-9~
E|-66-------22------------4444------------
To be on the edge of breaking down, when no ones there to save you
No you don't know what its like
Welcome to my life

G|-------------------------------------
D|---------------------------------------
A|--------------------------------------
E|--4------------------------------------
Welcome to my life
Welcome to my life..
Calificar esta versión:
Aviso: Este fichero es trabajo propio de su transcriptor y representa su interpretación personal de la canción. El material contenido en esta página es para exclusivo uso privado, por lo que se prohibe su reproducción o retransmisión, así como su uso para fines comerciales.
Más versiones de Welcome To My Life, Simple Plan
Welcome To My Life
acordes
Welcome To My Life (ver 2)
acordes
Welcome To My Life (ver 3)
acordes
Welcome To My Life (ver 4)
acordes
Welcome To My Life
bajo
Descubre más canciones de Simple Plan