I´m Just A Kid, Simple Plan (tablatura) (ver 2)

Autor: J3sUs94 | 19473 visualizaciones

Intro:
------------------------------------------------------------------------------ 
---3----3----3----3----3----3----3----3---3----3---3----3----3----3--3p2------ 
-------2---------2---------2---------2--------2--------2----2----2---2-------- 
-0-------------------0------------------0------------------0----0----2-------- 
-----------0-------------------0-----------------0------------------0--------- 
-----3---------3---------3---------3--------3--------3----2----3-------------- 

 
Coro:
------------------------------------------------------------------------------ 
----0-----0------------------------------------------------------------------- 
---0-----0----2-------------------------7-7-7----------------7-7-7------------ 
--2-----0----2--------------------------7-7-7-5-5-5-7-7-7-7--7-7-7-5-5-5-7-7-- 
------------0---------------------------5-5-5-5-5-5-7-7-7-7--5-5-5-5-5-5-7-7-- 
-0----3---------------------------------------3-3-3-5-5-5-5--------3-3-3-5-5-- 

 
------------------------------------------------------------------------------ 
------------------------------------------------------------------------------ 
--------------------------7-7-7----------------------------------------------- 
-7-5-5-5-5--2-2-2-5-5-5-5-7-7-7-7-7-7-2-2-2-5-5-5-7-7-7-7-7------------------- 
-7-5-5-5-5--2-2-2-5-5-5-5-5-5-5-7-7-7-2-2-2-5-5-5-7-7-7-7-7------------------- 
-5-3-3-3-3--0-0-0-3-3-3-3-------5-5-5-0-0-0-3-3-3-5-5-5-5-5------------------- 

 
------------------------------------------------------------------------------ 
---3---3---3----3------------------------------------------------------------- 
------2-----2--2--7-7-7-7----------------------------------------------------- 
-0----------------7-7-7-7-5-5-5-5-7-7-7-7-5-5-5-5----4-4-4-4-5-5-5-5-7-7-7-7-- 
---------0--------5-5-5-5-5-5-5-5-7-7-7-7-5-5-5-5-3x-4-4-4-4-5-5-5-5-7-7-7-7-- 
-----3--------3-----------3-3-3-3-5-5-5-5-3-3-3-3----2-2-2-2-3-3-3-3-5-5-5-5-- 

 
------------------------------------------------------------------------------ 
------------------------------------------------------------------------------ 
------------------------------------------------------------------------------ 
-7-7-7-7-2-2-2-2-5-5-5-5-7-7-7------------------------------------------------ 
-7-7-7-7-2-2-2-2-5-5-5-5-7-7-7------------------------------------------------ 
-5-5-5-5-0-0-0-0-3-3-3-3-5-5-5------------------------------------------------ 

 
------------------------------------------------------------------------------ 
------------------------------------------------------------------------------ 
------------------------------------7---------------7-7-7--------------------- 
--5-5-5-5-7-7-7-7-4-4-4-4-5-5-5-5-5-7-5-5-5-5-7-7-7-7-7-7-2-2-2-2--7---------- 
--5-5-5-5-7-7-7-7-4-4-4-4-5-5-5-5-5-5-5-5-5-5-7-7-7-5-5-5-2-2-2-2--7---------- 
--3-3-3-3-5-5-5-5-2-2-2-2-3-3-3-3-3---3-3-3-3-5-5-5-------0-0-0-0--5---------- 

 
------7--------7--------7---10-9-7---------7-------7--------12-10------------- 
-10-------10-------10--------------10-10------10-------10--------------------- 
----7---7----7---7----7---7--------------7--7----7---7----7------------------- 
------------------------------------------------------------------------------ 
------------------------------------------------------------------------------ 
------------------------------------------------------------------------------ 

 
------7--------7--------7---10-9-7----10--12--14--15--17---------------------- 
-10-------10-------10--------------10---10--10--10--10------------------------ 
----7---7----7---7----7---7--------------------------------------------------- 
------------------------------------------------------------------------------ 
------------------------------------------------------------------------------ 
------------------------------------------------------------------------------ 
  
 
------------------------------------------------------------------------------ 
------------------------------------------------------------------------------ 
-----------------7-7-7-7-4-4-4-4------------------7--------------------------- 
-5-5-5-5-7-7-7-7-7-7-7-7-4-4-4-4-5-5-5-5-7-7-7-7--7--7--5--------------------- 
-5-5-5-5-7-7-7-7-5-5-5-5-2-2-2-2-5-5-5-5-7-7-7-7--5--7--5--------------------- 
-3-3-3-3-5-5-5-5-----------------3-3-3-3-5-5-5-5-----5--3--------------------- 

  
 
--------------------------------------------------10-------------------------- 
----------------------------------------------------10------------------------ 
-------------------------------------------------------12--------------------- 
------------------------------------------------------------------------------ 
------------------------------------------------------------------------------ 
------------------------------------------------------------------------------ 
 
 
Calificar esta versión:
Aviso: Este fichero es trabajo propio de su transcriptor y representa su interpretación personal de la canción. El material contenido en esta página es para exclusivo uso privado, por lo que se prohibe su reproducción o retransmisión, así como su uso para fines comerciales.
Más versiones de I´m Just A Kid, Simple Plan
I´m Just A Kid
tablatura
I´m Just A Kid (ver 2)
tablatura
Descubre más canciones de Simple Plan