Casiopea, Silvio Rodriguez (tablatura)

Autor: Anónimo | 29460 visualizaciones

Intro:

e----------------------------------------------------------------------
B-----------------0---------0-----------0-----------0-----------0------
G-0-0---0-0---0-0---0-0---0-----0-0---0-----0-0---0-----0-0---0---0-0--
D-----------------------------0-----------------------0----------0-----
A----------------------------------------------------------------------
E-----------------------------------------3----------------------------


     SOL                    LA7/SOL     Dom/SOL       SOL
a)      Como una gota fui de la marea... la marea... la marea
      SOL                       LA7/SOL         Dom/SOL         SOL
        La playa me hizo grano de la arena... de la arena... de la arena

        Dom/SOL                      SOL
b)      Fui punto en multitud por donde fui
      Dom/SOL                  RE/FA#
        Nadie me detectó y así aprendí.

     SOL                    LA7/SOL     Dom/SOL       SOL
a)      Cuando creí colmada la tarea... la tarea... la tarea
      SOL                     LA7/SOL    Dom/SOL     SOL
        Volví mi corazón a Casiopea... Casiopea... Casiopea



e-3--------------------------------------------------------------
B-3----0-1-3-----------------------------------------------------
G-----------------0-2----0---2--0---0-------0-------0------------  x2
D-------------0-2----------2------2-----0-1-----0-1---------0----
A-------------------------------------------------------2-3------
E----------------------------------------------------------------



      Dom/SOL                  SOL
c)      Cumplí celosamente nuestro plan:
       Dom/SOL             LA7/SOL      Dom/SOL   RE/FA#
        Por un millón de años esperar... esperar... esperar


     SOL                            LA7/SOL
a)      Hoy llevo el doble dando coordenadas
       Dom/SOL                 SOL
        Pero nadie contesta mi llamada.


      Dom/SOL                         SOL
c)      ¿Qué puede haber pasado a mi señal?
       Dom/SOL                     LA7/SOL   Dom/SOL      RE/FA#
        ¿Será que me he quedado sin hogar... sin hogar... sin hogar?




e-------------------------------
B-------------------------------
G---------0-------0-------------
D-1---0-1-----0-1----------0---- x2
A-0-------------------2-3-------
E-------------------------------


e-----------------------------------------------------------
B-----------------------------------------------------------
G------------0-----------------0----------------0-----------
D---1----0-1------0-1-2----1-2-----1-2-1----0-1-----0-1-0---
A---0-------------------------------------------------------
E-----------------------------------------------------------



     SOL                        LA7/SOL
a)      Hoy sobrevivo apenas a mi suerte
        Dom/SOL                      SOL
        Lejano de mi estrella, de mi gente.


        Dom/SOL                       SOL
b)      El trance ma ha mostrado otra lección:
       Dom/SOL                     RE/FA#
        El mundo propio siempre es el mejor.


     SOL                      LA7/SOL    Dom/SOL       SOL
a)      Me voy debilitando lentamente... lentamente... lentamente
     SOL                                LA7/SOL    Dom/SOL   SOL
        Quizá ya no sea yo cuando me encuentren...  uuhh... uuhh...

SOL-LA7/SOL-Dom/SOL-SOL-Dom/SOL-SOL-Dom/SOL-SOL
Aviso: Este fichero es trabajo propio de su transcriptor y representa su interpretación personal de la canción. El material contenido en esta página es para exclusivo uso privado, por lo que se prohibe su reproducción o retransmisión, así como su uso para fines comerciales.
Más versiones de Casiopea, Silvio Rodriguez
Casiopea
acordes
Casiopea
tablatura
Casiopea
video guitarra
Casiopea (ver 2)
video guitarra
Descubre más canciones de Silvio Rodriguez

Comentarios en Facebook: