My Heroine, Silverstein (tablatura)

Autor: Em0PuNk07(JaV¡eR) | 26634 visualizaciones



|-------------------------------------------------- 
B|-------------------------------------------------- 
G|---4---0----------0---------0------0-----0-------- 
D|-----4---4----2/4---4-----4---4------4-----4------(2x) 
A|------------3----------5--------5------5-----5---- 
E|-0------------------------------------------------ 
 
e|-------------------------------------------------- 
B|-------------------------------------------------- 
G|-9--5--7----9--5--7---5-7-9-7-5-7-9xxxxxx-7xxxx77- 
D|-9--5--7----9--5--7---5-7-9-7-5-7-9xxxxxx-7xxxx77- 
A|-7--3--5----7--3--5---3-5-7-5-3-5-7xxxxxx-5xxxx55- 
E|-------------------------------------------------- 
 
e|-------------------------------------------------- 
B|-------------------------------------------------- 
G|-7-7-7--5-5-5--7-7-7------------------------------ 
D|-7-7-7--5-5-5--7-7-7--5-4------------------------- 
A|-9-9-9--3-3-3--5-5-5------5---5------------------- 
E|----------------------------6--------------------- 
 
e|-------------------------------------------------- 
B|-------------------------------------------------- 
G|-7-7-7--5-5-5--7-7-7------------------------------ 
D|-7-7-7--5-5-5--7-7-7--0-4-3----------------------- 
A|-9-9-9--3-3-3--5-5-5--0-4-3----------------------- 
E|----------------------0-3-2----------------------- 
 
Chorus: 
 
e|-------------------|------------------------------- 
B|-------------------|------------------------------- 
G|-5-----7-----7-----|-5------7xxxxxxx-7777777------- 
D|-5(7x)-7(7x)-7(14x)|-5(14x)-7xxxxxxx-7777777------- 
A|-3-----5-----9-----|-3------5xxxxxxx-5555555------- 
E|-------------------|------------------------------- 
                    (2x) 
 
e|--------------------------------------------------- 
B|--------------------------------------------------- 
G|-7-7-7--5-5-5--7-7-7------------------------------- 
D|-7-7-7--5-5-5--7-7-7--5-4-------------------------- 
A|-9-9-9--3-3-3--5-5-5------5---5-------------------- 
E|----------------------------6---------------------- 
 
e|--------------------------------------------------- 
B|--------------------------------------------------- 
G|-7-7-7--5-5-5--7-7-7------------------------------- 
D|-7-7-7--5-5-5--7-7-7--0-4-3------------------------ 
A|-9-9-9--3-3-3--5-5-5--0-4-3------------------------ 
E|----------------------0-3-2------------------------ 
 
Chorus: 
 
e|-------------------|------------------------------- 
B|-------------------|------------------------------- 
G|-5-----7-----7-----|-5------7xxxxxxx-7777777x------ 
D|-5(7x)-7(7x)-7(14x)|-5(14x)-7xxxxxxx-7777777x------ 
A|-3-----5-----9-----|-3------5xxxxxxx-5555555x------ 
E|-------------------|------------------------------- 
                    (2x) 
e|--------------------------------------------------- 
B|--------------------------------------------------- 
G|--------------------------------------------------- 
D|-5------4------9----7----5-----5-----4-----9--7--5- 
A|-5(14x)-4(14x)-9(5x)7(5x)5(5x)-5(14x)4(14x)9--7--5- 
E|-3------2------7----5----3-----3-----2-----7--5--3- 
 
e|--------------------------------------------------- 
B|--------------------------------------------------- 
G|---4---0----------0---------0------0-----0--------- 
D|-----4---4----2/4---4-----4---4------4-----4-------(2x) 
A|------------3----------5--------5------5-----5----- 
E|-0------------------------------------------------- 
 
e|--------------------------------------------------- 
B|--------------------------------------------------- 
G|-5-7-9-7-5-7-9-7-5-7-9-7-5-7-9xxxxxx7xxxx7-7------- 
D|-5-7-9-7-5-7-9-7-5-7-9-7-5-7-9xxxxxx7xxxx7-7------- 
A|-3-5-7-5-3-5-7-5-3-5-7-5-3-5-7xxxxxx5xxxx5-5------- 
E|--------------------------------------------------- 
 
e|-------------------|------------------------------- 
B|-------------------|------------------------------- 
G|-5-----7-----7-----|-5------7xxxxxxx-7777777x------ 
D|-5(7x)-7(7x)-7(14x)|-5(14x)-7xxxxxxx-7777777x------ 
A|-3-----5-----9-----|-3------5xxxxxxx-5555555x------ 
E|-------------------|------------------------------- 
                    (2x) 
 
e|--------------------------------------------------- 
B|--------------------------------------------------- 
G|-7-7-7--5-5-5--7-7-7--------------9---------------- 
D|-7-7-7--5-5-5--7-7-7--5-4---------9---------------- 
A|-9-9-9--3-3-3--5-5-5------5---5---7---------------- 
E|----------------------------6---------------------- 





Comentarios del colaborador: bueno aqui les dejo unas de mis canciones favoritas de una banda emo llamada silverstein

Calificar esta versión:
Aviso: Este fichero es trabajo propio de su transcriptor y representa su interpretación personal de la canción. El material contenido en esta página es para exclusivo uso privado, por lo que se prohibe su reproducción o retransmisión, así como su uso para fines comerciales.
Más versiones de My Heroine, Silverstein
My Heroine
acordes
My Heroine
tablatura
Descubre más canciones de Silverstein